Attaque 77 - Western Guitar Chords

Attaque 77

argentine punk, argentine rock, latin alternative, latin rock

Chords: A5, C5, D5, F5, E5, G5
  A5       C5     D5      A5
1|----------------------------------------|
2|----------------------------------------|
3|-9-/14--9-/12--9-/11--9--7--9-----------|
4|-x-/-x--x-/-x--x-/x----x--x--x--7-------|
5|-7-/12--7-/10--7-/9---7--5--7--x--------|
6|-------------------------------5--------|
    A5     C5     D5     A5
1|----------------------------------------|
2|----------------------------------------|
3|-9-/14--9-/12--9-/11--9--7--------------|
4|-x-/-x--x-/-x--x-/x----x--x--7----------|
5|-7-/12--7-/10--7-/9---7--5--x-----------|
6|----------------------------5-----------|

 D5                           C5
 Qué Esperás Producción descomunal?
 D5                          C5 
Qué Esperás? Hollywood no existe más
D5                      C5 
Qué Esperás? Sudamerica es así
  D5                    C5         C5
Qué Esperás? Esto es pura realidad.


 D5                          C5
Qué Esperás? Solución en el final?
  D5                            C5
Superman, nunca viene por aca
 D5                               C5
Qué Esperás? Nuestro heroe es de Verdad
 D5                        C5
Nacional, bien anónimo y mortal.

A5                   C5
Es la historia de cada día
F5                 A5
siempre el mismo guión
A5        D5   F5     C5
trabas y burocracia que frustración
       C5         D5           E5
lo de siempre, lo normal, todo gris...
        C5    D5          E5
sin final felíz,en este film...

         A5     C5 (RIFF 2)
los buenos mueren
       A5        C5 (RIFF 2)
los buenos mueren.
       D5     F5  G5 (RIFF 2)
los buenos mueren.

RIFF 2:
1|-----------------------------------|
2|-----------------------------------|
3|-----------9------14--12-----------|
4|---7-------x-------x---x-----------|
5|---x-------7------12--10-----------|
6|---5-------------------------------|


   A5     C5    D5      A5
1|----------------------------------------|
2|----------------------------------------|
3|-9-/14--9-/12--9-/11--9--7--9-----------|
4|-x-/-x--x-/-x--x-/x----x--x--x--7-------|
5|-7-/12--7-/10--7-/9---7--5--7--x--------|
6|-------------------------------5--------|
    A5    C5     D5      A5
1|----------------------------------------|
2|----------------------------------------|
3|-9-/14--9-/12--9-/11--9--7--------------|
4|-x-/-x--x-/-x--x-/x----x--x--7----------|
5|-7-/12--7-/10--7-/9---7--5--x-----------|
6|----------------------------5-----------|

D5                          C5 
Observá, No te pierdas el final
D5                C5 
Que fatal, paradoja singular
D5                          C5 
Nunca más, nuestro héroe volverá
D5                   C5
se marchó por la puerta de atrás
 D5                       C5
Decidió evitar la corrupción
   D5                       C5
decidió, y ahi nomás se sucicido
   D5                            C5
Y pensar que fue maestro del by pass
    D5                      C5
Y murió, de un disparó al corazón.

A5               C5
Es la historia de cada día
F5             A5
siempre el mismo guión
A5      D5   F5            C5
trabas y burocracia que frustración
       C5         D5           E5
lo de siempre, lo normal, todo gris...
     C5    D5          E5
sin final felíz, en este film...

          A5       C5 (RIFF 2)
los buenos mueren
         A5        C5(RIFF 2)
los buenos mueren.
        D5    F5  G5(RIFF 2)
los buenos mueren.

Riff 1
          A5       C5
los buenos mueren
         A5        C5
los buenos mueren.
      A5          C5
los buenos mueren
       D5      F5  G5
los buenos mueren.

Solo
                      C5
1|--17~~~~-----17b--------------------------------------------------|
2|-----------------13-15-17-15-13-----------------------------------|
3|--------------------------------14~---------------12-14-16-14-12--|
4|-----------------------------------------12-14-12-----------------|
5|--------------------------------------15--------------------------|
6|------------------------------------------------------------------|
          D5                                A5
1|----------------------------------------------------------------|
2|--15b-15p13-17b13 13-13~-----------------------12---------------|
3|-------------------------------------12~~----12/14----14 ~------|
4|----------------------------------------------------------------|
5|----------------------------------------------------------------|
6|----------------------------------------------------------------|
          C5                D5                              A5
1|-------------------------------------------------------------------|
2|-------------------14---------------13---------13---12-13p12-12----|
3|---14~~---14/16---16 ~---14-16---------------------------------12--|
4|-------------------------------------------------------------------|
5|-------------------------------------------------------------------|
6|-------------------------------------------------------------------|

More chords by Attaque 77: