Attaque 77 - Heroe Guitar Chords

Attaque 77

argentine punk, argentine rock, latin alternative, latin rock

Song versions: 1 2
Chords:
Pequeño Intro

G---------------------------------------------------------------
D---------------------------------------------------------------
A---------------------------------------------------------------
E-----------9--9-9-9-9-7-------------------------------------(x4)

Verso (x2)

G---------------------------------------------------------------
D---------------------------------------------------------------
A---------------------------------------------------------------
E-7-7-7-7-7-7-7-7-7-7-9-9-9-9-9-9-9-9-9-9-7-5-5-5-5-5-5-5-5-5-5-


G---------------------------------------------------------------
D---------------------------------------------------------------
A---------------------------------------------------------------
E-----------9--9-9-9-9-7----------------------------------------(x4)

Estribillo

G---------------------------------------------------------------
D---------------------------------------------------------------
A----------7----------------------------------------------------
E---7--7-7---7-9--9-9-9-9-9-9-----------------------------------(x3)

G---------------------------------------------------------------
D---------------------------------------------------------------
A---------------------------------------------------------------
E--5-5-5-5-5-5-5-5-5-7-7-7-7-7-7-7-7-7---9--9-9-9-9-7-----------

Nota: para que el bajo no se "muera de hambre" en esta canción 
recomiendo variar un poco entre las notas, ya que el 
espacio y tiempo de la canción da lugar a arreglos propios.

More chords by Attaque 77: