Atabake - Pareces De Mentira Guitar Chords

Chords: E, F#, B, G#m, D#m
intro:

E---7--7--7---7--7--7---7--7--7---7--7--7-
B----7--7------7--7------9--9------9--9---
G-8---8--8--8---8--8--9---9--9--9---9--9--
D-----------------------------------------
A-----------------------------------------
E-----------------------------------------

E---7--7--7---7--7--7---11--11--11-7-7-7-
B----7--7------7--7------11--11----9-9-7-
G-8---8--8--8---8--8--11---11--11--9-9-8-
D----------------------------------------
A----------------------------------------
E----------------------------------------

E       F#       B
Pareces de mentira
E           F#            B
nunca vi a una mujer tan linda
E          F#                   B          G#m
que guardara en su cuerpo el secreto del amor
E           F#            B  F#
y entre sus ojos una canción.

E       F#       B
Pareces de mentira,
E              F#              B
pues cuando te ví se me fue la vida
E         F#           B             G#m
ni una palabra solo un poco de tu piel
E              F#           B  F#
y hoy estoy seguro me enamoré.

G#m                F#                 E
   Llegaste al compás de una sonrisa,
    F#            B
buscando una canción
G#m                   F#   E
   perdida en la fantasía,
       F#            B  F#
que envuelve mi corazón.

CORO:

E       F#        B
Mi niña de mentira
E         F#      B
la dueña de mi amor
E         F#      G#m
la reina de mi vida
E             F#
tú mi refugio, mi salvación.

E        F#      B
Mi niña de mentira
E         F#      B
la dueña de mi amor
D#m                F#
llenaste esta melodía
E    F#             B
con acordes de ilusión
D#m                   G#m
te entrego toda mi vida
E            F#
sin un beso, tu me das amor.
E       F#       B
Mi niña de mentira
E        F#       B
la dueña de mi amor,
E        F#       G#m
la reina de mi vida,
E                       F#
tú mi refugio, mi salvación.

  G#m                F#                E
   Llegaste al compás de una sonrisa
    F#            B
buscando una canción
G#m                   F#   E
   perdida en la fantasía
       F#            B  F#
que envuelve mi corazón.

E       F#        B
Mi niña de mentira
E         F#      B
la dueña de mi amor
E         F#      G#m
la reina de mi vida
E             F#
tú mi refugio, mi salvación.

E       F#        B
Mi niña de mentira
E         F#      B
la dueña de mi amor
E         F#      G#m
la reina de mi vida
E             F#
tú mi refugio, mi salvación.

E salvación...

E---7--7--7---7--7--7---7--7--7---7--7--7-
B----7--7------7--7------9--9------9--9---
G-8---8--8--8---8--8--9---9--9--9---9--9--
D-----------------------------------------
A-----------------------------------------
E-----------------------------------------

E---7--7--7---7--7--7---11--11--11-7-7-7-
B----7--7------7--7------11--11----7-7-7-
G-8---8--8--8---8--8--11---11--11--8-8-8-
D----------------------------------------
A----------------------------------------
E----------------------------------------

More chords by Atabake: