Aspencat - Futur Nuvolat Guitar Chords

Aspencat

rap catalan, ska espanol

Chords: Am, E, G7
La dedique a l´Associació i Club de Muntanya QUERCUS.
Des de La Pobla de Vallbona, Camp de Túria. València.
Promovent el valencià.


El ritme que utilitza Aspencat en aquest tema és ska,
però també podeu fer qualsevol altre
perquè la cançó mola molt igual jaja  (raggae, pop, rumba, ska, etc...)


INTRO: Diverses veus tocant al mateix temps:


1ª El solo:

--5--5---------------------------------------------------
----------8---6---5---6---5------3--3----1--0--1--0------
-------------------------------------------------------2-
---------------------------------------------------------
---------------------------------------------------------
---------------------------------------------------------

2ª  L´acompanyament:

Am                             E      -      Am


3ª Segon acompanyament

--5-5---5---5-5-5-5-5---5---5-5-5---4-4---4---4-4-4-5-5---5-------
------------------------------------------------------------------
------------------------------------------------------------------
------------------------------------------------------------------
------------------------------------------------------------------
------------------------------------------------------------------


Am
Ja es divisa a l'horitzó
 E                        Am
Una remor que ve de la foscor
Am
Siluetes sense nom
E                   Am
Carregades de rancor
Am
Oblidades per la política social
E                       Am
Sentenciades per l'estat del benestar
Am
Menyspreades pel mercat de treball
E                      Am
 ignorades per la humana vanitat
Am
Llançades al buit sense paracaigudes
E                                     Am
Deutores perpètues de mirades perdudes
Am
No competitives, proletàries invisibles
E                               Am
Clamen al deu dels diners fratricides
Am
Aires de revolució d'una generació
E                      Am
Esclava de la eterna aspiració
Am
Préstecs de misèria sense amortització
E                                     Am
Auguren una vida sense forma ni funció


Am                      G7                 Am
I traurem la paleta i pintarem les estrelles
G7                              Am
Visionaris en un món d'
G7                             Am
Somiadors que travessen fronteres
Am
En un futur nuvolat      [x2]


Am
Dins la gàbia terror i amor
E                          Am
Juguen la mentida i els botxins a sang
Am
Siluetes sense nom
E                      Am
Injustícies, sang i corbs
Am                 E     Am
Art i màgia,   tot és vàlid
Am                  E           Am
Dins la gàbia hi ha esperances
Am
Estima la vida tant com tu i com jo
E                         Am
I anhela eixir de la misèria
Am
Colpeja fort company que no estàs sol
E                     Am
Tot és ara i és possible
Am
Juga-li fort a la vida, juga-li fort a la vida
E                                        Am
S'escapa la fantasia que ens farà arribar al cim
Am
Si al cap i a la fi
Si al cap i a la fi
Si al cap i a la fi són tants
E
És cultura, fantasia
          Am
Ets el guerrer que farà la pau!


TORNADA (x8)


El solo del principi i la bandúrria els van tocant varies vegades al llarg
de la cançó.
Sort!

Sandrovich7

More chords by Aspencat: