Asin - Hangin Guitar Chords

Asin

classic opm, manila sound, opm, pinoy alternative

Song versions: 1 2
Chords: F, Am, D, G, Bb, C
Song: Hangin
By: Asin
Tuning: Standard (EADGBe)

[INTRO]
Guitar 1:
        F                    Am
e|----1p0----3--|--3p0--------------------|
B|-------0------|-----0----0-3-1-0--1p0---|
G|--------0-----|------0-2--2-2-------2p0-|
D|--------------|-------------------------| x2
A|--------------|-------------------------|
E|--------------|-------------------------|


Guitar 2:(Enters after Guitar 1)
e|----3-3/5--|--5\3-----|-------------|-------------|
B|-----------|-----5-5--|--5/3-3/1-1--|--0-1-0------|
G|-----------|----------|-------------|--------0-2--|
D|-----------|----------|-------------|-------------|
A|-----------|----------|-------------|-------------|
E|-----------|----------|-------------|-------------|


[Chorus]
     D
O, hangin (o, hangin)
    F             G       Am
Pinayapa mo ang aking damdamin
     D
O, hangin (o, hangin)
   F             G          Am
Linutas mo ang aking mga suliranin


(Play Guitar 1)
F     Am     
F     Am


[Verse 1]
 F                       Am
Hanging maitim ang nasa bayan
 F                   Am
Likha ng usok sa pagawaan
 Bb        F       C
Ito'y 'di mo masilayan
 Bb                   Am
Dito sa bundok at kabukiran

 F                           Am
Punong kawayan ang aking nakikita
 F                               Am
Buhay ng karamiha'y sa kanya gumagaya
 Bb    F             C
'Di tiyak kung saan pupunta
 Bb                        Am
Bawat galaw, hangin ang nagdadala


[Chorus]
     D
O, hangin (o, hangin)
    F             G       Am
Pinayapa mo ang aking damdamin
     D
O, hangin (o, hangin)
   F             G          Am
Linutas mo ang aking mga suliranin


(Play Guitar 1)
F     Am     
F     Am


[Verse 2]
 F                     Am
Aking himig, inyong maririnig
 F                  Am
Sa hangin na nasa paligid
 Bb        F             C 
Kasabay sa ibong nagliliparan
 Bb                       Am
At kaluskos ng dahon sa palayan

 F                  Am
Buhay ko'y katulad niya
 F                Am
Kung saan-saan napupunta
 Bb       F         C
Dahil sa himig na aking dala
 Bb                Am
At sa hawak kong gitara


[Chorus]
     D
O, hangin (o, hangin)
    F             G       Am
Pinayapa mo ang aking damdamin
     D
O, hangin (o, hangin)
   F             G          Am
Linutas mo ang aking mga suliranin


[Outro]
      D        F   G       Am
O, hangin (owoh oooh owoh oooh)


Notes:
- In the song, Guitar 1 also plays in the first two lines of each stanza in Verse 1 and 2

More chords by Asin: