Ashley McBryde - El Dorado Guitar Chords

Ashley McBryde

contemporary country

Chords: D, G, Bm, Gm, F#m, C, A, E, F, F#, G#, A#
SONG:   EL DORADO
ARTIST: ASHLEY McBRYDE
TAB BY: DON CZARSKI
EMAIL:  GUITARZAN7@HOTMAIL.COM


                   EL DORADO
                 ASHLEY McBRYDE

INTRO:
   D
E ------------------------------------
B ------------------------------------
G -----5/9--7-5----------5/9--7/11----
D -5h7----------7----5h7--------------
A ------------------------------------
E ------------------------------------

                        G         D
E ----------------------3---------5--
B ----------------------3---------3--
G -----5/9--7-5----5-7--4---------3--
D -5h7----------7-------5---------3--
A ----------------------5----4-5--5--
E ----------------------3--5------5--


VERSE:
 D                                                  G
Mornin' side of midnight, 'nother state line comin' up

E ------
B ------
G ------
D ------
A --4-5-
E -5----

 D                                                            Bm  G
It's down to the truckers, the troopers, and troubadours like us
 D                                              G
I'm out of coffee, Andy's burnin' his last cigarette

E ------
B ------
G ------
D ------
A --4-5-
E -5----

 D                                                  Bm   G
And the needle's droppin', but the tank ain't empty yet


CHORUS:
    D
We can't stop now, can't stop now
      Gm                    D
No we can't stop now, El Dorado

   D
E ------------------------------------
B ------------------------------------
G -----5/9--7-5----------5/9--7/11----
D -5h7----------7----5h7--------------
A ------------------------------------
E ------------------------------------

                        G         D
E ----------------------3---------5--
B ----------------------3---------3--
G -----5/9--7-5----5-7--4---------3--
D -5h7----------7-------5---------3--
A ----------------------5----4-5--5--
E ----------------------3--5------5--


VERSE:
 D                                     G
Hotel paper full of songs I write for you

E ------
B ------
G ------
D ------
A --4-5-
E -5----

 D                                          Bm   G
Highway sailor, miles and miles to sing 'em to
 D                                                G
That silver lining’, oh no it ain't hidin' on no map

E ------
B ------
G ------
D ------
A --4-5-
E -5----

D                                                Bm   G
I gotta find it, I'll pull it down and bring it back


CHORUS:
         D
Ooh, we can't stop now, can't stop now
       Gm                   D
No we can't stop now, El Dorado

         D
Ooh, we can't stop now, can't stop now
       Gm                  Bm    F#m   C
No we can't stop now, El Doradooooooooooooo
         A         D
Good as gold El Dorado


INSTRUMENTAL:
(use barre chords and slide up the neck of the guitar)
D  D  D  D  D  D  D  D  E F F# G G# A A#

SOLO:
Improvise over the D chord


CHORUS:
    D
We can't stop now, can't stop now
       Gm                   D
No we can't stop now, El Dorado

         D
Ooh, we can't stop now, can't stop now
       Gm                   D
No we can't stop now, El Dorado

   D
E ------------------------------------
B ------------------------------------
G -----5/9--7-5----------5/9--7/11----
D -5h7----------7----5h7--------------
A ------------------------------------
E ------------------------------------

                        G         D
E ----------------------3---------5--
B ----------------------3---------3--
G -----5/9--7-5----5-7--4---------3--
D -5h7----------7-------5---------3--
A ----------------------5----4-5--5--
E ----------------------3--5------5--

More chords by Ashley McBryde: