Asha Puthli - Say Yes Guitar Chords

Chords: Fmaj7, Fmaj9, Gm7/C, Gm9/C, Bbmaj7, C#maj7, Am7, Dm7, Dm7/C, Bb, C, Cm7, B7
Say Yes - Asha Puthli

Great song with some nice chord changes.

[Riff 1]
Fmaj7 Fmaj9 Fmaj7 Fmaj9 Fmaj7 Fmaj9 Fmaj7
E|-0------0-|-0------0-|-0------0-|-0--------|
B|-1------1-|-1------1-|-1------1-|-1--------|
G|-2------0-|-2------0-|-2------0-|-2--------|
D|-3------3-|-3------3-|-3------3-|-3--------|
A|-3------3-|-3------3-|-3------3-|-3--------|
E|-0------0-|-0------0-|-0------0-|-0----5\1-|

[Riff 2]
 Gm7/C          Gm9/C         Gm7/C
E|-3---3-3---3-|-5---3-5---3-|-8---6-8---|
B|-3---6-3---6-|-3---3-3---3-|-3---3-3---|
G|-3---3-3---3-|-3---3-3---3-|-3---3-3---|
D|-3---3-3---3-|-3---3-3---3-|-3---3-3---|
A|-3---3-3---3-|-3---3-3---3-|-3---3-3---|
E|-------------|-------------|-----------|

[Intro]
  Bbmaj7
E|-10-8---5--3----|-10-8---5--3----|
B|----------------|----------------|
G|----------------|----------------|
D|----------------|----------------|
A|----------------|----------------|
E|----------------|----------------|

[Riff 1]

[Verse 1]
Fmaj7
Do you love me, really love me?
   C#maj7   Fmaj7  *Riff 1
Say yes, say yes
Fmaj7
Daylight comes and opens like a lotus
    C#maj7     Gm7/C *Riff 2
Your eyes, your eyes

*Riff 1

[Verse 2]
Fmaj7
Needles in my body when you let me
C#maj7   Fmaj7  *Riff 1
Caress, caress
Fmaj7
Do you love me, really love me?
  C#maj7    Gm7/C *Riff 2
Say yes, say yes

[Chorus]
Am7          Dm7 Am7       Dm7     Dm7/C
Want you so badly, so badly I could die
Bb                       C
Hold me and tell me you love me again
Am7          Dm7 Am7       Dm7     Dm7/C
Want you so badly, so badly I could die
Bb                       C            Cm7  B7 Bbmaj7
Hold me and tell me you love me again

[Break]
Bbmaj7
     Oh baby
Fmaj7 *Riff 1
   Just a kiss

[Verse 3]
Fmaj7
I would walk through fire just to tell you
   C#maj7   Fmaj7
Say yes, say yes
Fmaj7
Do you love me, really love me?
  C#maj7    Gm7/C  *Riff 2
Say yes, say yes
 
[Chorus]
Am7          Dm7 Am7       Dm7     Dm7/C
Want you so badly, so badly I could die
Bb                       C
Hold me and tell me you love me again
Am7          Dm7 Am7       Dm7     Dm7/C
Want you so badly, so badly I could die
Bb                       C
Hold me and tell me you love me again 

More chords by Asha Puthli: