Asaf Avidan - Over My Head Guitar Chords

Chords: C#m, A, E, G#m, F#m, B7
-------------------------------------------------------------------------------
                             over my head - asaf avidan
-------------------------------------------------------------------------------
Tabbed by:Misha Livhsitz
E-mail:sight1991@gmail.com

Tuning:standart 

capo 3


intro:

e|------------------------0----|
B|---------------0---0---------|
G|-------------1---2---2-------|
D|---------0~2-----------------|
A|-----------------------------|
E|-----0-----------------------|


C#m     A       E    
I'm in over my head
C#m             A        E
Dragged back from the dead
C#m      A      E
How was I to know?
C#m              A        E
Just a seedling in the snow
G#m       F#m
Now I am trying
G#m            F#m
To get you on the line
G#m               F#m         B7
‘Cause baby I'm coming back home


 [chorus]
E                A        E                   A
And it's hard to believe, but there's nobody leaving
G#m            F#m        B7
Please don't lock the door

‘Cause baby I'm yours



e|------------------------0----|
B|---------------0---0---------|
G|-------------1---2---2-------|
D|---------0~2-----------------|
A|-----------------------------|
E|-----0-----------------------|

C#m         A      E
A shattered broken pile
C#m        A        E
That could not reconcile
C#m       A         E
Darkness stared at me
C#m         A        E
A love spilled carelessly
G#m             F#m
Then you turned on the light
G#m         F#m
Like a moth in the night
G#m      F#m      B7
Baby I'm coming home

E                A        E                   A
And it's hard to believe, but there's nobody leaving
G#m            F#m        B7
Please don't lock the door

E                A        E                   A
And it's hard to believe, but there's nobody leaving
G#m            F#m        B7
Please don't lock the door

‘Cause baby I'm yours

e|------------------------0----|
B|---------------0---0---------|
G|-------------1---2---2-------|
D|---------0~2-----------------|
A|-----------------------------|
E|-----0-----------------------|

E

More chords by Asaf Avidan: