Arturo Meza - El Juglar Se Ha Marchado Del Reino Guitar Chords

Arturo Meza

cantautor, trova

Chords: Gm, F, D#, Fm, B, D, E, Abajo
Intro: Gm   -   F-D# (se repite varias veces)


Gm
Un día decidió partir a las tierras bajas

Donde la sonrisa es gris, donde muere el sol

En los libros de sumaris conoció la ley

Que aprisiona a los enfermos de aquella región
D#        F         Gm
Y esa historia dividió su corazón
D#        F         Gm            F-D#
Y esa historia dividió su corazón


Gm   -   F-D# (se repite varias veces)  


Gm
Nunca antes hijo nuestro a excepción del rey

Cruzo la argentina linde con misión terrestre

Puede ser que no regrese puede ser que caiga

Como el unicornio blanco en manos de Orión
D#      F         Gm
En el reino su silueta se esfumo
D#      F          Gm               F-D#
En el reino extrañaremos su canción


Gm   -   Fm-D# (se repite varias veces)


Gm
Elfos, gnomos y guerreros han cruzado el rió

Van en busca de su rastro, van temiendo al frió

Y contaron que vampiros, sierpes y estrigones

Habitan a esos humanos simulando cuerpos
D#      F         Gm
No le vieron caminar sin su laúd
D#      F          Gm
Ni las runas te podrán hacer volver
D#      F          Gm
En el reino su silueta se esfumo
D#      F         Gm                F-D#
En el reino extrañaremos su canción

Gm   -   F-D# (se repite varias veces hasta el final)


Acordes:
      Gm           F          D#
 E [--3---------1---------3---]
 B [--3---------1---------4---]
 G [--3---------2---------3---]
 D [--5---------3---------1---]
 A [--5---------3---------1---]
 E [--3---------1---------x---]

En cada nota se deberá hacer el siguiente bajeo con rasgueo 
hacia arriba o hacia abajo según indique la figura. 
Ejemplo con Gm
    (Hacia Abajo)   (Hacia arriba)  (Hacia Abajo)
E [-------3---------------3---------------3---------]
B [-------3---------------3---------------3---------]
G [-------3---------------3---------------3---------]     
D [-------5---------------5---------------5---------]     
A [-------5---------------5---------------5---------]     
E [--3-3--------------------3-3---------------------]

Se repite esta secuencia de bajeo y rasgueo excepto donde se 
indica en la canción.
Nota: Donde se indica eliminar el bajeo se sugiere dar simples 
rasgueos hacia abajo.

Bueno eso es todo con un poco de practica esta canción se oye 
muy bien. Esta canción se la dedico a todos los discípulos de 
Arturo meza, y a el le doy las gracias por crear canciones 
bien chidas.

More chords by Arturo Meza: