Arno - Reviens Marie Guitar Chords

Arno

world chill

Chords: C7M/E, E5, Em, C, Am, B, G, E, A
-------------------------------------------------------------------------------
                             Arno - Reviens Marie
-------------------------------------------------------------------------------
Album : Jus de Box (2007)
Tempo : 135
Tabbed by:newg
E-mail:gwendal.mollo@orange.fr

C7M/E : 022010

    E5                            C7M/E  
E |--------------0--------0----|--0--0--0--0--0-------------||
B |--------------0--------0----|--1--1--1--1--0-------------||
G |--------------0--------0----|--0--0--0--0--0-------------|| Riff Em C7M/E
D |--2-----2-------------------|--------------0-------------||
A |--2-----2-------------------|----------------------------||
E |--0-----0-------------------|----------------------------||


Em C7M/E  X4

Em          C7M/E   
T'es jeune ,      t'es belle
Em          C7M/E   
Moi j'suis vieux et con
          C    Am      Em     C7M/E   
Prends le vent comme amant
Em              C7M/E      Em         C7M/E   
T'es capable de forcer une vache à danser
     C            Am             Em     C7M/E
Pour toi j'aurais fait n'importe quoi
    Am                            Em     C7M/E       C    B
Et certains soirs sans toi, je me noie
Em         C7M/E   Em              C7M/E
Je te voie         dans mes songes
         Am      G            Em    C7M/E
Tu dis " oui" et tu t'allonges

Refrain :
E              C                Am   
Reviens Marie, Emmène-moi jusqu'à ton lit
E                      G         A
Ne t'inquiète pas, Y'a rien qui cloche chez moi
E              C                Am
Reviens Marie, Emmène-moi jusqu'à chez toi
E                       G          A        Em    C7M/E     Em    C7M/E
Ne t'inquiète pas, Y'a rien qui cloche chez moi


Em     C7M/E   
Va-t-en,   ne pleure pas
Em          C7M/E   
Tout ça s'effacera
       C    Am        Em     C7M/E   
Tu verras c'est comme ça   
Em              C7M/E          
Tu pouvais être reine de Sabah,
Em               C7M/E   
Miel et cruelle, les deux à la fois 
   C        Am          Em     C7M/E
Alors je marche et je bois
   Am                              Em     C7M/E       C    B
Et certains soirs sans toi, je me noie
  Em            C7M/E   
Je vais danser   dans d'autres bras 
Em            C7M/E
Je me promène dans les jupons
   Am       G          Em         C7M/E
Me perds, mélange tous les prénoms


refrain

Em    C7M/E x4

refrain

Em

More chords by Arno: