Arno - Françoise Guitar Chords

Arno

world chill

Chords: E, Bm, E/G, G
----------------------------------------------------------------------------------------------------
                                      Arno - Françoise 
----------------------------------------------------------------------------------------------------

Album : French Bazaar (2004)
Tempo : 126
E-mail: gwendal.mollo@orange.fr
Tabbed by: newg    (http://profile.ultimate-guitar.com/newg/)

  Basse 1 ere couplet 
   E
G|--------------------|
D|--------------------|
A|--7--------5-----7--|
E|-----5-5-7-----7----|

  Riff 2
e|--------------------|
B|--------------------|
G|--------------------|
D|--------------------|
A|-----2h1---1h0------|
E|-0h3----------------|
 
   Bm
e|--2------------------|
B|--3--3-2-1-0---------|
G|--4------------------|
D|--4------------------|
A|--2------------------|
E|---------------------|


                                E
Fais ta belle, pas cruelle, naturelle
                                E
Comme une vraie mademoiselle
                                E
On est moche, mais on s'amuse
                                E
Du rire aux larmes

E E/G

                            Riff 2              
Avec mon regard de vieux bébé
                                    Riff 2
Je me lave les yeux dans ton décolleté

Refrain :
E                         G   E                     G
Danse, danse ma Françoise,    danse, danse, danse
E                            G   
Danse, danse ma Françoise,       comme une Bruxelloise

Bm x2

E                            Riff 2
Sois fière, sois gracieuse
E                            Riff 2
Le monde change et nous aussi

[Refrain]

Bm x4

Bm                            Bm 
Danse, danse ma Françoise,    danse, danse, danse                 x4
Bm                            Bm 
Danse…                        Comme une Bruxelloise
Bm 
Danse

More chords by Arno: