Arno - Depuis Ce Jour-Là Guitar Chords

Arno

world chill

Chords: E5, G
----------------------------------------------------------------------------------------------------
                                     Arno - Depuis ce jour-là
----------------------------------------------------------------------------------------------------

Album : À la française (1995)
Tempo : 123
E-mail: gwendal.mollo@orange.fr
Tabbed by: newg    (http://profile.ultimate-guitar.com/newg/)


e|-------------------------|-------------------------|
B|-------------------------|-------------------------|
G|-------------------------|-------------------------|
D|-------------------------|-------------------------|
A|--------------2--2-2--2--|--------------2----------|
E|--0--2--3--5-------------|--0--2--3--5-------------|


e|-------------------------|-------------------------|
B|-------------------------|-------------------------|
G|-------------------------|-------------------------|
D|-------------------------|-------------------------|
A|--2----------------------|--2----------------------|
E|----5--3--2--0---0-0--0--|----5--3--2--0-----------|

E5
Il y a des serpents dans mes bottes
Il y a des chiens qui frappent à ma porte
Les étoiles chantent au ciel noir
La lune me regarde comme un chat noir

Refrain :
E5                                         G
Je ne suis plus le même, Depuis ce jour-là
E5                                         G
La vie n'est pas parfaite, Elle se trompe parfois

E5
Personne ne sait ce qu'elle fait
Tout le monde s'en fout
Personne ne me dit où elle est
Personne n'a de couilles

[Refrain]

E5
J'ai des rêves d'elle allongée
Langoureusement sur un canapé
Avec son porte-jarretelles
En combinaison de dentelle

E5
Je regarde sa bouche qui bouge
Son corps mince comme un haricot vert
Je tremble comme un vieux pépère
Comme un vieux pépère

[Refrain] x2

More chords by Arno: