Arno - Chanteur De Charme Guitar Chords

Arno

world chill

Chords: A, D, E, C#m, F#
----------------------------------------------------------------------------------------------------
                                      Arno - Chanteur De Charme
----------------------------------------------------------------------------------------------------

Album : French Bazaar (2004)
Tempo : 117
E-mail: gwendal.mollo@orange.fr
Tabbed by: newg    (http://profile.ultimate-guitar.com/newg/)

  Intro :
e|----------------------|
B|---------------3h4h5--|
G|-------------2--------|
D|----------------------|
A|-0--4h5h6h7-----------|
E|----------------------|

  Solo :
e|----------------|----------------|----------------|
B|----------------|----------------|----------------|
G|-6-----------6--|-7-----------9--|-7-----6--------|
D|-----------7----|----------------|----------------|
A|----------------|----------------|----------------|
E|----------------|----------------|----------------|

e|----------------|----------------|----------------12-----------|
B|----------------|----------------|-------14-12-14-----14---12--|
G|-6-----------6--|-7-----------6--|6s9--------------------------|
D|-----------7----|----------------|-----------------------------|
A|----------------|----------------|-----------------------------|
E|----------------|----------------|-----------------------------|

  Basse intro
G|----------------|
D|----------------|
A|----------------|
E|--5--0-3-0-3-0--| 



Riff basse x4

A                   D         A           A
 J'suis chanteur de charme et riche aussi
   D                                  A
Je veux être mince comme un pneu de vélo
   E                      D                  A
Je veux que tout le monde m'aime même les clodos
A                   D         A           A
 J'suis chanteur de charme et riche aussi
   D                    A
Ma thérapeute est une danoise
E            D          A      A
Ma masseuse,     une chinoise

Solo

Refrain :
A           C#m           F#
Regarde les traces de mes larmes
A              E         A
Faire pleurer, c'est mon jeu

A                   D         A           A
 J'suis chanteur de charme et gentil aussi
D                                             A
J'ai de la chance que je reste jeune pour mon âge
E               D          A
Ma fiancé à dix-huit, elle flippe aussi


[Refrain]

D D A x2

E                        A
Faire pleurer, c'est mon jeu

A                   D         A           A
 J'suis chanteur de charme
A                   D         A           A
 J'suis chanteur de charme
A                   D         A           A
 J'suis chanteur de charme et gentil aussi
A                   D         A           A
 J'suis chanteur de charme et riche aussi

A

More chords by Arno: