Armando Palomas - Que Te Vas A Ir Guitar Chords

Armando Palomas

latin alternative, mexican rock, rock en espanol, trova

Chords: C, G, F
BUENO AQUI ESTOY OTRA VEZ AHORA CON UNA CANCION DE ARMANDO PALOMAS
QUE ESTA FACIL EL PEDO ERA SACAR LOS SOLITOS QUE TRAE.
BUENO YA QUE ESCUCHEN LA CANCION AHI LE AGARRARAN EL RITMO QUE ES ALGO ASI COMO UN BLUES
PRACTIQUENLE POR QUE ESTA MEDIO CABRON TOCARLA Y CANTARLA   


QUE TE VAS A IR

C                        G     F      C
que te vas a ir me cae que yo ya sabia 

        F      
pero estas que te vas y te vas (6) 
         C
y no te vas 

Aioo Silver!

e---------|-----------5-------------------|-----------5-------------------|------------------|
B---------|-----5-8-8---8-5-----5-5-------|-----5-8-8---8-5-----5-5-------|------------------|
G---------|-5-7-------------5-7-----7-7-5-|-5-7-------------5-7-----7-7-5-|-5-4-2------------|
A---------|-------------------------------|-------------------------------|--------5-3-2-----|
D---0-2-3-|-------------------------------|-------------------------------|--------------5-3-|
E-0-------|-------------------------------|-------------------------------|------------------|

          C                   G   F   C    C                   G   F   C
ESOS DE AHI DE ARRIBA SON LOS TONOS QUE ACOMPAÑAN AL SOLITO ESE DE ARRIBA QUE ES COMO EL DE 'OHH
SUSANA'


C                       G     F      C
que te vas a ir me cae que yo ya sabia (2) 
C
me lo dijo un policia caminando 

en la banqueta una niña y un payaso 

chupandose una paleta 
F
una prosti de la esquina 

y un babalo en la cantina 
C
un taxista en la estacion 

un pecero y un camion 
G
que atropella un gato herido 

le apachurro la pasion 
F
que llevaba serenata 

hasta aquel viejo callejon 
G
donde aquella noche 
F                         C
triste me tumbaste el corazon 
C                       G      F     C
que te vas a ir me cae que yo ya sabia 
C                       G      F     C
que te vas a ir me cae que yo ya sabia 
C
me lo dijo un pajarito que chiflaba en los alambres 

el pantera y el memin claroton y el mariquita 
F
el piro el chato y el negro 

un vaquero y un ladron 
C
un portero un carterista 

y un reportero cabron 
G
un pintor un periodista 

y un pachuco futbolista 
F
al que le feriaste besos 

por un faje de a toston 
G
y en aquella noche triste 
F                   C
me pisaste el corazon 

yepa¡ 

e---------|-----------------------|---------------|-----------------------|-----------|
B---------|-----5-5-5-------------|---------------|-----5-5-5-------------|-----------|
G---------|-5-7-------7-5---------|-----4-----5-5-|-5-7-------7-5---------|-----4---5-|
A---------|---------------7-5-5-5-|-5-7---5-7-----|---------------7-5-5-5-|-5-7---5---|
D---0-2-3-|-----------------------|---------------|-----------------------|-----------|
E-0-------|-----------------------|---------------|-----------------------|-----------|

LOS QUE ACOMPAÑAN SON LOS MISMOS TONOS QUE EL SOLITO ANTERIOR, ESTA TAMBIEN SUENA MEDIO COUNTRY

C                        G         C
role role role lo la lon ro la lon ro li lon (X2)

C
que te vas a ir 
         G     F     C
me cae que yo ya sabia 
C
me lo dijo un domador 

que es papa de un licenciado 

primo de una prestamista 

que trabaja en un mercado 
F
una tienda de mascotas 

socia de una taqueria 
C
que vende tacos que perro 

casi inmoviles en si 
G
donde te llevo a cenar 

un doctor de porqueria 
F
en una gran ramfla de lujo 

que por cierto era prestada 
G
y en aquella noche triste 
F                    C
me olvidaste de volada 
C
y ahora ya se que 

al aliarse de tus nuevas amistades 

tus fresitas come mocos 

salmonistas vale madres 
F
cachirulos sopla culos 

pizarrones y buñuelos 
C
farolitos farolotes 

cursis miados huele pedos 
G
huele moles borrachitos 

mariguanos metiditos 
F
niños buenos medios malos 

pinches buenos para nada 
G
y antes que tu me mandes 
F                 C
yo te mando a la 'chingada' 
C        F        F G C  
vaquero vaquerooo¡ 
                          C F C   C F C    C
se me revento el barzon 

ESPERO QUE LES SIRVA Y PUES SUGERENCIAS COMENTARIOS MENTADA ETC, JACKASS19@ AHI 
SE REPORTAN LE PoNEN 'ATAME' EN EL ASUNTO.
DEDICADOS PARA TODOS LOS FANS DE ESTE CABRON EL ARMANDO PALOMAS.
Y COMO DICE ESTE WEY

' VAMOS A PONERNOS MARIGUANOS Y TODOS TODOS JUNTO NOS LA VAMOS A TRONAR....'

UN SALUDO PARA LOS PUPDAS

More chords by Armando Palomas: