Armando Palomas - 17 Años Guitar Chords

Armando Palomas

latin alternative, mexican rock, rock en espanol, trova

Chords: C, G, F
intro: C-G-F-C x2

e------------------------------------------------|
B------------------------------------------------|
G--9---9---9---9----7--7--7--7---5--5--5--5h7-5--|
D----10--10--10--10---9--9--9--9---7--7--7-------|
A------------------------------------------------|
E------------------------------------------------|


 C                         G        F                   C
con su baby dolL orado en luna, su cabello humedo de sueños
 C                         G           F                  C
casi como una niña en su cuna, duerme con alcohol y los exesos
 C                       G                 F                   C
sueña con que alguna madrugada, sople un viento de eso en la mejilla
  C                        G             F                  C
sin que huela tanta mariguana, ni que apriete fuerte las canillas
 C                       G          F                      C
despertar sobre una vomitada, de tacos de juan el de la esquina
 C                            G          F                   C
limpia con un trapo el pizo sucio, revoltura de alcohol y comida
 F       C      G    F           C             G
17 años solamente y ya es una experta en el dolor
      F           C       G          F            C          G
y quisiera ser luna menguante que alguna luz le cambie el dolor

C-G-F-C x2

e------------------------------------------------| x2
B------------------------------------------------|
G--9---9---9---9----7--7--7--7---5--5--5--5h7-5--|
D----10--10--10--10---9--9--9--9---7--7--7-------|
A------------------------------------------------|
E------------------------------------------------|

  C                       G        F                     C
piensa que la proxima semana, cambiaran las cosas y los pesos
 C                           G     F                       C
la esperanza al ultimo se muere, pues la mata la falta de besos
 C                          G         F                     C
lagrimas de azufre en la mañana, es todo lo que ha desayunado
  C                                  G           F                    C
mientras llena con su aliento la ventana y busca un orgasmo en un mercado
 F       C     G     F           C             G
17 años solamente y ya es una experta en el dolor
    F            C       G           F           C           G
y quisiera ser luna menguante que alguna luz le cambie el color
       F           C        G    F          C                 G
que alguna luz regrese el amor, que alguna luz le calme el ardor

FINAL: C-G-F-C x4

e------------------------------------------------| x4
B------------------------------------------------|
G--9---9---9---9----7--7--7--7---5--5--5--5h7-5--|
D----10--10--10--10---9--9--9--9---7--7--7-------|
A------------------------------------------------|
E------------------------------------------------|


##CHEKEN ESTA NUEVA CANCION DE SR PALOMAS
 DE SU NUEVO DISCO CANCIONES EN SEPIA ESPERO Y LES
 GUSTE cualkier aclaracion les dejo mi
 correo que es yagami_ch@

More chords by Armando Palomas: