Arijit Singh - Soch Na Sake Guitar Chords

Arijit Singh

desi, desi hip hop, filmi, indian pop

Song versions: 1 2 3
Chords: A, F#m, D, C#, E, Bm, Bdim
Tuning:  Standard (No Capo)
=======  -------- ---------

Chords:   A , F#m , D , C# , E , Bm
=======   -------------------------


Strumming Patterns: Follow the Below Pointed Patterns for the perfect rhythm...
==================  -----------------------------------------------------------

   1) Intro Music Part >> D-D-Mute-D-D-Mute-D -- D-D-Mute-D-D-Mute-D -- & so on for 4 intro chords
      ----------------

   2) "Punjabi" Lines after Intro Music >> D-D-Mute-D-DD -- D-D-Mute-D-DD -- D-D-Mute-D-DD -- D-D-Mute-D-DD
      ---------------------------------

   3) Then Strum Like >>  D-U-D-U-D-U-D-U-D -- D-U-D-U-D-U-D-U-D -- D-U-D-U-D-U-D-U-D & so on
      ---------------

   4) Verse 1 First Two Lines would be Single Down Strokes on Each Chords...
      ----------------------------------------------------------------------

   5) Then Strum again as the combinations of >>  D-D-D --- D-D-D --- D-D-D --- D-D-D & then follow 
      ---------------------------------------     D-U-D-U-D-U-D-U-D -- D-U-D-U-D-U-D-U-D Pattern shown above

   6) Verse 2 Patterns would be the same as >>  D-D-D --- D-D-D --- D-D-D --- D-D-D & then follow 
      -------------------------------------     D-U-D-U-D-U-D-U-D -- D-U-D-U-D-U-D-U-D Pattern shown above

   7) Outro Pattern will be same as Intro Music Pattern >>  D-D-Mute-D-D-Mute-D -- D-D-Mute-D-D-Mute-D
      -------------------------------------------------

=============================================================================================================



  **Chords are as Below**
    ===================



[Intro]

Follow the TAB & Play the Chords Mentioned Below of the TAB (if 2 Guitarists available or just play the TAB):


E|-4-5-4-0---------------4-5-4-0---------------4-5-4-0---------------0------------|
B|----------3-2-3-5---------------3-2-3-5---------------3-2-3-5---0-2-2-0--0------|
G|------------------------------------------------------------------------2-------|
D|--------------------------------------------------------------------------------|
A|--------------------------------------------------------------------------------|
E|--------------------------------------------------------------------------------|

   A                     F#m                  D                  A

again:

E|-4-5-4-0---------------4-5-4-0---------------4-5-4-0---------------0------------|
B|----------3-2-3-5---------------3-2-3-5---------------3-2-3-5---0-2-2-0--0------|
G|------------------------------------------------------------------------2-------|
D|--------------------------------------------------------------------------------|
A|--------------------------------------------------------------------------------|
E|--------------------------------------------------------------------------------|

   A                     F#m                  D                  A


Start Strumming Chords from the Below:

      A                 F#m
Tainu itna main pyaar karaan,
   D                   A
Ek pal vich sau baar karaan...
   A                    F#m
Tu jaave je mainu chhad ke,
     D             A
Maut da intezaar karaan... (Mute A Ring Here)

             A
Ke tere liye duniya chhod di hai,
          F#m
Tujhpe hi saans aake ruke,
            D            C#
Main tujhko kitna chahta hoon,
            D         A
Ye tu kabhi soch na sake.....

          A
Tere liye duniya chhod di hai,
          F#m
Tujhpe hi saans aake ruke,
            D            C#
Main tujhko kitna chahta hoon,
            D       A
Ye tu kabhi soch na sake.....


[Instrumental]

E|-4-5-4-0---------------4-5-4-0---------------4-5-4-0---------------0------------|
B|----------3-2-3-5---------------3-2-3-5---------------3-2-3-5---0-2-2-0--0------|
G|------------------------------------------------------------------------2-------|
D|--------------------------------------------------------------------------------|
A|--------------------------------------------------------------------------------|
E|--------------------------------------------------------------------------------|

   A                     F#m                  D                  A

again:

E|-4-5-4-0---------------4-5-4-0---------------4-5-4-0---------------0------------|
B|----------3-2-3-5---------------3-2-3-5---------------3-2-3-5---0-2-2-0--0------|
G|------------------------------------------------------------------------2-------|
D|--------------------------------------------------------------------------------|
A|--------------------------------------------------------------------------------|
E|--------------------------------------------------------------------------------|

   A                     F#m                  D                  A


[Verse 1]

F#m         E           D
 Kuch bhi nehi hai ye jahaan, Tuuu...
A            E         Bm
 hai toh hai isme zindagiii.....
 
F#m    D    E    D

F#m          E           D
  Kuch bhi nehi hai ye jahaan, Tuuu...
A            E         Bm
 hai toh hai isme zindagiii.....
F#m        E           D
 Ab mujhko jaana hai kahaan, Keeee...
A        E            Bm
 tu hi safar hai aakhiri..... (Mute Bm Ring Here)

 
[Pre-Chorus]
 
             A
Ke tere bina jeena mumkin nahin,
              F#m
Na dena kabhi mujhko tu faasley,
            D            C#
Main tujhko kitna chahta hoon,
            D         A
Ye tu kabhi soch na sake....


[Chorus]

          A
Tere liye duniya chhod di hai,
          F#m
Tujhpe hi saans aake ruke,
            D            C#
Main tujhko kitna chahta hoon,
            D       A
Ye tu kabhi soch na sake.....

[Instrumental]

MANDOLIN                 PIANO
A Bdim D E F#m E A A     F#m F#m Bm Bm D D Bdim Bdim A A


[Verse 2]

F#m         E             D
 Aankhon ki hai yeh khwahishein, Keee...
A          E         Bm
 chahre se tere na hatein....
     F#m            E          D
Mmmm...Neendon mein meri bas tere, eee.....
A           E           Bm
 Khwabon ne li hai karwatein.... (Mute Bm Ring Here)

 
[Pre-Chorus] 

 A
Ke teri ore mujhko leke chalein,
          F#m 
Ye duniya bhar ke sab raaste,
            D            C#
Main tujhko kitna chahta hoon,
            D         A
Ye tu kabhi soch na sake....


[Chorus]

          A
Tere liye duniya chhod di hai,
          F#m
Tujhpe hi saans aake ruke,
            D            C#
Main tujhko kitna chahta hoon,
            D       A
Ye tu kabhi soch na sake....


[Outro]

E|-4-5-4-0---------------4-5-4-0---------------4-5-4-0---------------0------------|
B|----------3-2-3-5---------------3-2-3-5---------------3-2-3-5---0-2-2-0--0------|
G|------------------------------------------------------------------------2-------|
D|--------------------------------------------------------------------------------|
A|--------------------------------------------------------------------------------|
E|--------------------------------------------------------------------------------|

   A                     F#m                  D                  A
  
again:

E|-4-5-4-0---------------4-5-4-0---------------4-5-4-0---------------0------------|
B|----------3-2-3-5---------------3-2-3-5---------------3-2-3-5---0-2-2-0--0------|
G|------------------------------------------------------------------------2-------|
D|--------------------------------------------------------------------------------|
A|--------------------------------------------------------------------------------|
E|--------------------------------------------------------------------------------|

   A                     F#m                  D                  A

More chords by Arijit Singh: