Arijit Singh - Phir Mohabbat Guitar Chords

Arijit Singh

desi, desi hip hop, filmi, indian pop

Song versions: 1 2
Chords: Cm, Gm, G#, A#
Phir Mohabbat – Murder 2

[Intro]

e|----------------------------------------------------------------------------|
B|-----4-3------------4-3------------------4-3------------------4-3-----------|
G|---5----3---------5----3---------------5----3---------------5----3----------|
D|--5-------6------6-------5------------5-------6------------6-------5--------|
A|----------------------------------------------------------------------------|
E|----------------------------------------------------------------------------|


[Verse]

Cm       Gm                         G#               Cm
Jab jab tere paas main aaya, Ik sukoon mila
Cm        Gm                       G#                Cm
Jise main tha bhoolta aaya, Wo wajood mila
Cm        Gm                       G#                Cm
Jab aaye mausam gham ke, Tujhe yaad kiya Ho   
Cm        Gm                       G#                Cm
Jab sehme tanhapan se, Tujhe yaad kiya

e|----------------------------------------------------------------------------|
B|-----4-3------------4-3------------------4-3------------------4-3-----------|
G|---5----3---------5----3---------------5----3---------------5----3----------|
D|--5-------6------6-------5------------5-------6------------6-------5--------|
A|----------------------------------------------------------------------------|
E|----------------------------------------------------------------------------|

Cm                              Gm
Hmm  dil    Sambhal ja zara
G#                           Cm
Phir mohabbat karne chala hai tu
Cm                             Gm
Dil           yahin ruk jaa zara
G#                         Cm                            Gm
Phir mohabbat karne chala hai tu

G#              A#             G#
Aisa kyun kar hua janu naa
Cm
Main janu naa o  o  


[Chorus]

Cm                    Gm
Dil    Sambhal ja zara
G#                           Cm
Phir mohabbat karne chala hai tu
Cm                             Gm
Dil           yahin ruk jaa zara
G#                         Cm                            Gm
Phir mohabbat karne chala hai tu


[Verse]

Cm
Jis raah pe, hai ghar tera
G#                                                   Cm
Aksar wahan se, haan main hoon guzra
Cm
shayad yahin dil mein raha
G#                                     A#
Tu mujh ko mil jaye, Kya pata   
G#                 A#
Kya hai yeh silsala
G#                           Cm
Janu naa, Main janu naa
Cm                    Gm
Dil    Sambhal ja zara
G#                           Cm
Phir mohabbat karne chala hai tu
Cm                             Gm
Dil           yahin ruk jaa zara
G#                         Cm                            Gm
Phir mohabbat karne chala hai tu

Cm
Kuch bhi nahi Jab darmayaan
G#                                        Cm
Phir kyun hai dil, tere hi khwaab bunta
Cm
Chaha ki de, tujhko bhula
G#                 A#
Par yeh bhi mumkin ho na sakaa   
G#             A#         G#
Kya hai yeh maamla, Janu naa
         Cm
Main janu naa


[Chorus]

Cm                    Gm
Dil    Sambhal ja zara
G#                           Cm
Phir mohabbat karne chala hai tu
Cm                             Gm
Dil           yahin ruk jaa zara
G#                     Cm                           Gm
Phir mohabbat karne chala hai tu

e|----------------------------------------------------------------------------|
B|-----4-3------------4-3------------------4-3------------------4-3-----------|
G|---5----3---------5----3---------------5----3---------------5----3----------|
D|--5-------6------6-------5------------5-------6------------6-------5--------|
A|----------------------------------------------------------------------------|
E|----------------------------------------------------------------------------|

More chords by Arijit Singh: