Arijit Singh - Lo Maan Liya Guitar Chords

Arijit Singh

desi, desi hip hop, filmi, indian pop

Chords: Em, D, CM7, Am, Bm, B, C, B7, G
Chords  : Matthew Jordan MJ
Song    : Lo Maan Liya
Singer  : Arijit Singh
Music   : Jeet Gannguli 
Lyrics  : Kausar Munir
Film    : Raaz: Reboot (2016)

Youtube : https://www.youtube.com/channel/UCN8HCKYVl3UheT78pbGYnQQ
Facebook: https://www.facebook.com/Matthew.Jordan.MJ
Instagram: https://www.instagram.com/matthew.jordan07/

CAPO: 2

[Intro]

               Em                  D                  Em                  D    
e| ------------------------------------------------------------------------------|
B| -------8-7--8-7--8-7--8-7-8s10--10--7-7-------8-7--8-7--8-7--8-7-8s10--10-----|
G| --4s7------------------------------------4s7----------------------------------|
D| ------------------------------------------------------------------------------|
A| ------------------------------------------------------------------------------|
E| ------------------------------------------------------------------------------|

             CM7                   Am          CM7             Bm      
e| -----5-3--5s7-5--7-5--7-5--7s8--8-5-5--5-3--5s7-------------------------------|
B| --------------------------------------------------8-8--5--8--7----------------|
G| --5---------------------------------------------------------------------------|
D| ------------------------------------------------------------------------------|
A| ------------------------------------------------------------------------------|
E| ------------------------------------------------------------------------------| 

|Em |D |Em |D |CM7 |Am |CM7 |Bm | , |Em | (x4)

[Chorus]

    Em        Am         B         Em              
Lo maan liya humne, Hai pyar nahi tumko
    Em         Am         B         Em
Tum yaad nahi humko, Hum yaad nahi tumko

[Pre.Chorus]

    Bm         C               B7         G
Bas ek dafaa mudke dekho, Aye yaar zara humko

[Chorus]

    Em        Am         B         Em              
Lo maan liya humne, Hai pyar nahi tumko
    Em         Am         B         Em
Tum yaad nahi humko, Hum yaad nahi tumko

[Instrumental]

|Em |D |Em |D |CM7 |Am |CM7 |Bm | (x2) , |Em | (x2)

[Verse]

    G          D                  B7           Em 
Lo maan liya dekha hi nahi, Tere kaandhe ka wo til
    G         D                   B7           Em  
Lo maan liya toota hi nahi, Tere hathon se mera dil

[Pre.Chorus]

  Bm               C                 B7        G
Chhaaon mein teri beeti hi nahi, Wo garmi ki baatein
  Bm               C                B7        G  
Baahon mein teri guzri hi nahi, Wo sardi ki raatein

[Chorus]

   Em         Am       B          Em     
Lo maan liya humne, Aitbaar nahi tumko
     Em        Am         B         Em
Tum yaad nahi humko, Hum yaad nahi tumko

[Instrumental]

|Bm Em |CM7 |G |C D | , |Bm Em |CM7 |D |Em | , |Em | (x4)
 
[Verse]

  G           D          B7             Em    
Jaao le jaao neend meri, Uff na karenge hum
   G           D               B7           Em  
Jo le jaaoge khwaab mere, Toh kaise jiyenge hum

[Pre.Chorus]

 Bm          C                  B7         G 
Jeena humko aata hi nahi, Teri saanson ke siva
 Bm             C                B7        G
Marna bhi ab namumkin hai, Teri baahon ke siva

[Chorus]
   Em         Am       B         Em  
Lo maan liya humne, Parwah nahi tumko
     Em        Am         B         Em
Tum yaad nahi humko, Hum yaad nahi tumko

[Ending]

|Em |D |Em |D |CM7 |Am |CM7 |Bm | (x2) , |Em | (x2)

More chords by Arijit Singh: