Arijit Singh - Ae Watan Guitar Chords

Arijit Singh

desi, desi hip hop, filmi, indian pop

Chords: D, G, E, A, Am
[Guitar solo]
e|-------------------------7--5----------------------------------------------------|
B|------------------/7--8----------------------------------------------------------|
G|---/7---9---9/11-------------------/7---9---9/11-----------9---7-----------------|
D|---------------------------------------------------7---9-------------------------|
A|---------------------------------------------------------------------------------|
E|---------------------------------------------------------------------------------|

[Harmony to Guitar Solo]
e|-------------------------------10--9---------------------------------------|
B|---/7---8----8/10----10---12-------------/7---8----8/10-----------8--7-----|
G|-----------------------------------------------------------7--9------------|
D|---------------------------------------------------------------------------|
A|---------------------------------------------------------------------------|
E|---------------------------------------------------------------------------|

D
Ae watan…
D
Mere watan…


     D
Ae watan.. aabaad rahe tu
D
Aabaad rahe tu… (aabaad rahe tu)

D G D G


[Verse]
D                                    G
Ae watan, watan mere, aabaad rahe tu
D
Ae watan, watan mere, aabaad rahe tu
 D
(Ae watan, watan mere, aabaad rahe tu)

D      E                                A
Main jahan rahun, jahaan me yaad rahe tu
D            E                          A
(Main jahan rahun, jahaan me yaad rahe tu)

D
Ae watan… mere watan!
D
(Ae watan… mere watan!)

 D

[Verse]
   G                   Am
Tu hi meri manzil, pehchan tujhi se
    A                  D
(Tu hi meri manzil, pehchan tujhi se)

      A
Pahunchu main jahaan bhi
               D
Meri buniyad rahe tu
                       E
(Pahunchu main jahaan bhi
         A
Meri buniyad rahe tu)

[Chorus]
D
Ae watan, watan mere, aabaad rahe tu
            E                 A
Main jahan rahun, jahaan me yaad rahe tu
D
Ae watan… mere watan!
D
(Ae watan… mere watan!)

D E A D x2
D

[Verse]
 G                       Am
Tujhpe koi gham ki aanch aane nahin doon
    A                      D
(Tujhpe koi gham ki aanch aane nahin doon)
    A                     D
Kurbaan meri jaan tujhpe, shaad rahe tu
     D         E            A           D
(Kurbaan meri jaan tujhpe, shaad rahe tu)

[Chorus]
D
Ae watan, watan mere, aabaad rahe tu
D              E             A
Main jahan rahun, jahaan me yaad rahe tu

D
Aye watan… (aye watan…)
D
Mere watan… (mere watan…)
D
Aye watan… (aye watan…)
D
Mere watan… (mere watan…)

D
Aabaad rahe tu…
D
Aabaad rahe tu…
D
Ae watan… mere watan
G               D
Aabaad rahe tu!

D         G        D
Ae watan… mere watan



************************************

| /  Slide up

************************************

More chords by Arijit Singh: