Ariel Pink - Put Your Number In My Phone Guitar Chords

Ariel Pink

alternative dance, alternative rock, art pop, art rock

Song versions: 1 2 3
Chords: G, Gm, F, Bm7, Bb, Cadd2, Am7, G/B, D, Csus2, C
Ariel Pink - Put Your Number In My Phone
song: https://www.youtube.com/watch?v=TYoQ6WLuMq4

CAPO I

INTRO
   G              Gm              F
e|-7----7-------5-6-5---6-5-----6-5----------|
B|----------8---------8-----8-6-------8--6---|
G|-------------------------------------------|
D|-------------------------------------------|
A|-------------------------------------------|
E|-------------------------------------------|

VERSE 1
G        Bm7          Bb       Cadd2
 There’s magic in the air, the night sky drapes your face 
G       Bm7            Bb    Am7
 like a mystery left uncovered

PRE-CHORUS
Cadd2       G/B
Talk to me, it’s now or never, babe
Cadd2             G
Make believe, the night last forever, babe
Cadd2         G/B
Come for tea, I’ll be your neighbor
       Am7               D
If you want all this and more

CHORUS
         Am7
Put your number in my phone
         G            Csus2
Put your number in my phone
          Am7           D
I hope to get sometime alone
        G               Cadd2
I wanna get to know you more, 
Am7            G            Cadd2
Baby, put your number in my phone
           Am7           D
If I could get sometime alone

VERSE 2
G       Bm7                  Bb              Cadd2
 ’cause what would tame this gypsy heart but fruits from fresh on vine
G     Bm7             Bb            Am7
 Your luscious lips entice me to discover

PRE-CHORUS
Csus2       G/B
Talk to me, I’ll be your butterfly
Csus2       G
Hard to me, I’m not the zion
Csus2             G/B
Save me, spare us both the denial
         Am7               D
Make the most of this true love

CHORUS
         Am7
Put your number in my phone
         G            Cadd2
Put your number in my phone
          Am7           D
I hope to get sometime alone
        G               Cadd2
I wanna get to know you more, 
Am7            G            Cadd2
Baby, put your number in my phone
           Am7           D
If I could get sometime alone

RE-INTRO
   G              Gm              F
e|-7----7-------5-6-5---6-5-----6-5----------|
B|----------8---------8-----8-6-------8--6---|
G|-------------------------------------------|
D|-------------------------------------------|
A|-------------------------------------------|
E|-------------------------------------------|

G   C

VERSE 3 (voicemail part, follow verse chords)
G     Bm7
Bb    Cadd2
G     Bm7
Bb    Am7

Hey Ariel, it's Jessica. 

We met at the taco truck in Silverlake and I don't know if you're really busy or something 

but I haven't heard back from you and I was just wondering like, if you could...

PRE-CHORUS
Cadd2       G/B
Talk to me, it’s now or never, babe
Cadd2         G
Make believe, under the zion
Cadd2         G/B
Come for tea, I’ll be your neighbor
       Am7               D
If you want all this and more

CHORUS
         Am7
Put your number in my phone
         G            Csus2
Put your number in my phone
          Am7           D
I hope to get sometime alone
        G               Cadd2
I wanna get to know you more, 
Am7            G            Cadd2
Baby, put your number in my phone
           Am7           D
If I could get sometime alone

OUTRO
   G              Gm              F
e|-7----7-------5-6-5---6-5-----6-5----------|
B|----------8---------8-----8-6-------8--6---|
G|-------------------------------------------|
D|-------------------------------------------|
A|-------------------------------------------|
E|-------------------------------------------|

End on G


___________________________________________________

CHORDS USED

   Cadd2 G/B Am7 Bm7
e|---0----3---0---2--|
B|---3----3---1---3--|
G|---0----0---0---2--|
D|---2----0---2---4--|
A|---3----2---0---2--|
E|-------------------|

More chords by Ariel Pink: