Ariel Pink - Another Weekend Guitar Chords

Ariel Pink

alternative dance, alternative rock, art pop, art rock

Song versions: 1 2
Chords: F#m, E, D, A, Bm, Dmaj7, C#m
Ariel Pink - Another Weekend

[Intro]
F#m  E  D
A    Bm D
F#m  E  D
A    Bm D

[Chorus]
        F#m     E         D
Another weekend out of my life
           A      Bm  D
I'm either too shy or humble
        F#m     E         D
Another weekend out of my life
         A     Bm    D
Is gonna get me into trouble

[Verse]
Dmaj7        C#m
Feel a body, warm and close behind me
Dmaj7                         C#m
 I turn around, but you are not there
Dmaj7               C#m
 Though I fail to ignore this resignation
       Bm       E
You're standing there

[Interlude]
e|-5-4-0-2-------0-2-----2---|
B|---------3-2-3-----3-0-----|
G|---------------------------|
D|---------------------------|
A|---------------------------|
E|---------------------------|

Dmaj7             C#m
 Every day, about five in the evening
Dmaj7                       C#m
 I think of all that went wrong
Dmaj7            C#m
 We were once so happy together
    Bm  E
But not for long

[Interlude]
e|-5-4-0-2-------0-2-----2---|
B|---------3-2-3-----3-0-----|
G|---------------------------|
D|---------------------------|
A|---------------------------|
E|---------------------------|

[Chorus]
          F#m    E         D
To log me in and out of my life
           A      Bm  D
I'm either too shy or humble
        F#m     E         D
Another weekend out of my life
         A     Bm    D
Is gonna get me into trouble
        F#m     E         D
Another weekend out of my life
          A       Bm   D
And I can shake off my worries
        F#m     E         D
Another weekend I can't rewind
        A      Bm       D
Another day not working for me

[Verse]
Dmaj7       C#m
Feel a body floating all around me
Dmaj7                          C#m
 I turn around, but you are not there
Dmaj7               C#m
 Though I fail to ignore this resignation
       Bm  E
You're standing there

[Interlude]
e|-5-4-0-2-------0-2-----2---|
B|---------3-2-3-----3-0-----|
G|---------------------------|
D|---------------------------|
A|---------------------------|
E|---------------------------|

Dmaj7             C#m
 Every day, about five in the evening
Dmaj7                       C#m
 I think of all that went wrong
Dmaj7            C#m
 We were once so happy together
    Bm  E
But not for long

[Interlude]
e|-5-4-0-2-------0-2-----2---|
B|---------3-2-3-----3-0-----|
G|---------------------------|
D|---------------------------|
A|---------------------------|
E|---------------------------|

[Chorus]
          F#m    E         D
To log me in and out of my life
A    Bm D
        F#m     E         D
Another weekend out of my life
A    Bm D
        F#m     E         D
Another weekend out of my life
           A      Bm  D
I'm either too shy or humble
        F#m     E         D
Another weekend I can't rewind
         A     Bm    D
Is gonna get me into trouble

[Outro]
F#m   E         D
      Out of my life
A     Bm D
F#m   E         D
      Out of my life
A     Bm D

More chords by Ariel Pink: