Arena - Only Child Guitar Chords

Arena

australian dance, australian pop, europop, french pop

Chords: Cm, Dm, Gm, Fm, Bb, Ab, C#, Eb
-----------------------------------------------------------------------------
                                          Artist - Arena
                                         ****************
                                        Song - Only Child 
                                       *******************
                                      Album - The Cry (1997)
                                     ************************
                                       Tabbed By - Ayreon77
                                      **********************
-----------------------------------------------------------------------------
Tuning = Standard


This is a organ, piano and syth, arranged for guitars.


INTRO - Cm Dm Gm Cm Fm Cm Gm 
******  Cm Dm Gm Cm Bb Cm
-----------------------------
VERSE 1
********
Cm 
Who makes these choices
    Dm              Gm
Who waves the final hand
     Cm
When wisdom is more than
Bb     Cm     Gm
age or reason

-----------------------------
VERSE 2
********
Cm
Who makes these choices
    Dm              Gm
Who makes the final stand
     Cm          Bb
When solitude is all
         Cm
that you believe

-----------------------------
CHORUS
*******
Ab
  It's all the same
        C#                 Eb
And you really should have known
Ab
  It's all the same
          C#
When your heart grows cold
           Eb
and you're all alone
Fm
  This has no name
     C#             Eb
This feeling that I used to know
Fm
  It's here again
      C#               Eb  
I can see the tortured souls
                Ab
as they cry for help

Take my hand
     C#
I'll lead you through the
Eb
traps and snares
Ab
  Take my hand
         C#                Eb
And I'll feed you and I'll clothe you like
   Fm
My only child
         C#              Eb
There is nothing left to feel
      Fm
Oh my only child
         C#
There is nothing left
   Gm
to hurt you now

-----------------------------
VERSE 3
********
Cm              Ab
Who makes these choices
    Dm              Gm
Who waves the final hand
     Cm
When all around
  Ab
I hear the sound
   Dm             Gm
Of pleading for a helping hand

-----------------------------
VERSE 4
********
Cm                Ab
  Who makes those choices
    Dm              Gm
Who makes the final stand
     Cm         Ab
When far away I hear them say
     Dm              Gm
They couldn't give a damn....
       Ab
Give a damn!


-----------------------------
BRIDGE
*******
Fm                   Gm
  They're crying for help....
Ab   Gm
Help me!
Fm                   Gm
  They're crying for help....
Ab   Gm
Help me!
Fm                   Gm
  They're crying for help....
Ab   Gm
Help me!
Fm                   Bb
  They're crying for help...

-----------------------------
03:36
SOLO
*****
  rake b  rake brp                                         03:44
e|----13-|----13--11-13----|---------h----------|---------|------------------|
B|--11---|--12----------11-|----11-11-13--------|---p-----|---h--p-----------|
G|-x-----|-x---------------|-12-----------12-12-|-10-8-10-|-10-12-10-------s-|
D|-------|-----------------|--------------------|---------|----------13-12-\-|
A|-------|-----------------|--------------------|---------|------------------|
E|-------|-----------------|--------------------|---------|------------------|

                                                     h  p              03:55   b rp       s
e|---------------------------|-------------s-------10-11-10---s-------|----11-13---11-13--\------|
B|---------------------------|-8----11---12\13--13----------12\13--13-|-13-----------------------|
G|-------------------8----10-|----------------------------------------|-----------------------12-|
D|---------------------10----|---10---10------------------------------|--------------------------|
A|----------10-11-13---------|----------------------------------------|--------------------------|
E|-10-11-13------------------|----------------------------------------|--------------------------|

                                     s                     
e|----------------|-----------|-15-15\18------------------|
B|----------------|----s---13-|----------16--15--15-16-18-|
G|---h---12---h---|-12-\15----|---------------------------|
D|-12-13----13-15-|-----------|---------------------------|
A|----------------|-----------|---------------------------|
E|----------------|-----------|---------------------------|

  04:10
e|--------b-15-16-15----15------------------------------h---------------18-15~~~-----s-|
B|-16-18-18----------18----16-15-------------------15-15-16-15----15-16----------18--\-|
G|-------------------------------17-15----15-15-17-------------17----------------------|
D|-------------------------------------17----------------------------------------------|
A|-------------------------------------------------------------------------------------|
E|-------------------------------------------------------------------------------------|

04:20                                             b r
e|------------------------------|--------b---b-|-13-----s-|
B|----------------p-------------|-13-15-15--15-|-----11-\-|
G|-12--12-12-13-13-12---------b-|--------------|----------|
D|--------------------15--13-15-|--------------|----------|
A|------------------------------|--------------|----------|
E|------------------------------|--------------|----------|


e|-----------------------------------------------------------------------|
B|--h------------h-------------------------------------------h-----8--s--|
G|-7-8----7-8---7-8----7--------------------------------h---7-8------7\8-|
D|-----10-----------10--8----h-------------------------8-10-----10-------|
A|------------------------8-8-10-----------------------------------------|
E|-------------------------------11-10-8-6--3-4-6-8-10-------------------|


e|---s-------------s------10-11-10----s---|
B|-11\13----11--11-\13-13-----------11\13-|
G|-------12-------------------------------|
D|----------------------------------------|
A|----------------------------------------|
E|----------------------------------------|

    b rp    b    rb
e|-13---11-13-|-13--13--10---s------|-------------b-|
B|------------|------------11\13-13-|-----------11--|
G|------------|---------------------|-12-12--10-----|
D|------------|---------------------|---------------|
A|------------|---------------------|---------------|
E|------------|---------------------|---------------|



ENJOY.......

More chords by Arena: