Arctic Monkeys - One Point Perspective Guitar Chords

Arctic Monkeys

garage rock, indie rock, modern rock, permanent wave

Song versions: 1 2 3
Chords: E, Fmaj7, Esus2, A7, A6, Fdim/B, E7, A, Gbm, Dbm, Bm, Bb, Fdim/D, B, Bb/F, Baug, Cm, Bdim, Eb, Gm, Fm
Arctic Monkeys - One Point Perspective

I've simplified the initial chords I had tabbed because of the complexity and finger stretch of some of those
in the original.
The original (with tabbed piano staccatos) can be found at the bottom of the tab.
I didn't know many of the names of the chords for the capo version, so use the ones I've tabbed.


[CAPO VERSION (6TH FRET)]

Chords (relevent to capo):
  
    E  Fmaj7 Esus2  A7  A6  Fdim/B E7  A  Gbm Dbm  Bm  Bb
e|--x----x-----x----x---0-----x----x---0---x---x---0---0--|
B|--0----0-----0----2---2-----0----3---2---2---2---3---3--|
G|--1----2-----4----0---2-----1----1---2---2---4---4---3--|
D|--2----3-----4----2---4-----3----0---2---4---2---0---0--|
A|--2----2-----2----0---0-----2----2---0---4---4---2---1--|
E|--0----0-----0----x---x-----0----0---x---2---x---x---x--|


[Intro]

E

[Verse 1]


E                               Fmaj7                         Esus2                           A7
   Dancing in my underpants, I'm gonna run for government, I'm gonna form a covers band and all
    A6                           Fdim/B                             E                 E7             A
And back there by the baby grand, didn't Mr. Winter Wonderland say "come here kid, we really need to talk"?
A6                                   Fdim/B        E        
Bear with me man, I lost my train of thought.
E                                   Fmaj7                         Esus2                         A7
   I fantasise and call it quits, I swim with the economists and I get to the bottom of it for good
A6                                    Fdim/B                              E                            A
By the time when the reality hits, the chimes of freedom fall to bits, the shining city on the fritz
A6                                      Fdim/B       E     
They come out of the cracks thirsty for blood.


[Chorus/Bridge]

Gbm             Dbm                Bm                           Dbm        
Ohh just as the apocalypse finally gets prioritised and you cry some of the
Gbm                          Dbm                  Bm
Hottest tears you'll ever cry, multiplied by five
Bm                           Bb
   I suppose the singer must die.


[Solo]

E    Fmaj7    Esus2    A7    A6    Fdim/B    E


[Verse 2]

E                                    Fmaj7                         Esus2                     A7
   Singsongs 'round the money tree, this stunning documentary that no one else unfortunately saw
 A6                              Fdim/B                                   E                               A
Such beautiful photography, it's worth it for the opening scene I've been driving round listening to the score
A6                          Fdim/B       
Or maybe I just imagined it all
E                                      A
I've played to quiet rooms like this before
A6                                   Fdim/B        E   E7    A
Bear with me man, I lost my train of thought.

A6    Fdim/D    E  E7  A
A6    Fdim/D    E


[NON-CAPO VERSION]


[Intro]

[Piano]

    Bb
e|--------------------------------------------------------------------------|
B|--3--3--3--3--3--3--3--3--3--3--3--3--3--3--3--3--3--3--3--3--3--3--3--3--| x2
G|--3--3--3--3--3--3--3--3--3--3--3--3--3--3--3--3--3--3--3--3--3--3--3--3--|
D|--------------------------------------------------------------------------|
A|--------------------------------------------------------------------------|
E|--------------------------------------------------------------------------|


[Verse 1]

[Piano]

    Bb                      B                      Bb/F                   Baug                     Cm
e|--------------------------------------------------1--1--1--1--1--1--1--1--3--3--3--3--3--3--3--3--3--3--3--|
B|--3--3--3--3--3--3--3--3--4--4--4--4--4--4--4--4-----------------------------------------------------------|
G|--3--3--3--3--3--3--3--3--4--4--4--4--4--4--4--4--3--3--3--3--3--3--3--3--4--4--4--4--4--4--4--4--5--5--5--|
D|-----------------------------------------------------------------------------------------------------------|
A|-----------------------------------------------------------------------------------------------------------|
E|-----------------------------------------------------------------------------------------------------------|

                 Bdim                     Bb                      Eb                      Cm
e|--3--3--3--3--3--------------------------------------------------------------------------3--3--3--3--3--3--|
B|-----------------6--6--6--6--6--6--6--6--3--3--3--3--3--3--3--3--4--4--4--4--4--4--4--4--------------------|
G|--5--5--5--5--5--4--4--4--4--4--4--4--4--3--3--3--3--3--3--3--3--3--3--3--3--3--3--3--3--5--5--5--5--5--5--|
D|-----------------------------------------------------------------------------------------------------------|
A|-----------------------------------------------------------------------------------------------------------|
E|-----------------------------------------------------------------------------------------------------------|

        Bdim                      Bb
e|--3--3----------------------------------------------------------------------------|
B|--------6--6--6--6--6--6--6--6--3--3--3--3--3--3--3--3--3--3--3--3--3--3--3--3----| x2
G|--5--5--4--4--4--4--4--4--4--4--3--3--3--3--3--3--3--3--3--3--3--3--3--3--3--3----|
D|----------------------------------------------------------------------------------|
A|----------------------------------------------------------------------------------|
E|----------------------------------------------------------------------------------|


Bb                              B                            Bb/F                           Baug
   Dancing in my underpants, I'm gonna run for government, I'm gonna form a covers band and all
    Cm                           Bdim                               Bb                               Eb
And back there by the baby grand, didn't Mr. Winter Wonderland say "come here kid, we really need to talk?"
Cm                                   Bdim          Bb
Bear with me man, I lost my train of thought.
Bb                                  B                             Bb/F                         Baug
   I fantasise and call it quits, I swim with the economists and I get to the bottom of it for good
 Cm                                    Bdim                                Bb                         Eb
By the time when the reality hits, the chimes of freedom fall to bits, the shining city on the fritz
Cm                                      Bdim       Bb
They come out of the cracks thirsty for blood.


[Chorus/Bridge]

[Piano]

    Cm                     Gm                      Fm                                  Gm
e|--3--3--3--3--3--3--3--3--3--3--3--3--3--3--3--3--------------------------------------3--3--3--3--|
B|--4--4--4--4--4--4--4--4--3--3--3--3--3--3--3--3--6--6--6--6--6--6--6--6--6--6--6--6--3--3--3--3--|
G|--5--5--5--5--5--5--5--5--3--3--3--3--3--3--3--3--5--5--5--5--5--5--5--5--5--5--5--5--3--3--3--3--|
D|--------------------------------------------------3--3--3--3--3--3--3--3--3--3--3--3--------------|
A|--------------------------------------------------------------------------------------------------|
E|--------------------------------------------------------------------------------------------------|
    Cm                      Gm                      Fm                      E
e|--3--3--3--3--3--3--3--3--3--3--3--3--3--3--3--3--------------------------------------------------|
B|--4--4--4--4--4--4--4--4--3--3--3--3--3--3--3--3--6--6--6--6--6--6--6--6--5--5--5--5--5--5--5--5--|
G|--5--5--5--5--5--5--5--5--3--3--3--3--3--3--3--3--5--5--5--5--5--5--5--5--4--4--4--4--4--4--4--4--|
D|--------------------------------------------------3--3--3--3--3--3--3--3--2--2--2--2--2--2--2--2--|
A|--------------------------------------------------------------------------------------------------|
E|--------------------------------------------------------------------------------------------------|

    E
e|---------------------------|
B|--5--5--5--5--5--5--5--5---|
G|--4--4--4--4--4--4--4--4---|
D|--2--2--2--2--2--2--2--2---|
A|---------------------------|
E|---------------------------|

Cm                Gm          Fm                                 Gm
Ohh just as the apocalypse finally gets prioritised, and you cry some of the
Cm                            Gm                    Fm
Hotttest tears you'll ever cry, multiplied by five
Fm                           E
   I suppose the singer must die.


[Solo]

[Piano]

    Bb                      B                      Bb/F                   Baug                     Cm
e|--------------------------------------------------1--1--1--1--1--1--1--1--3--3--3--3--3--3--3--3--3--3--3--|
B|--3--3--3--3--3--3--3--3--4--4--4--4--4--4--4--4-----------------------------------------------------------|
G|--3--3--3--3--3--3--3--3--4--4--4--4--4--4--4--4--3--3--3--3--3--3--3--3--4--4--4--4--4--4--4--4--5--5--5--|
D|-----------------------------------------------------------------------------------------------------------|
A|-----------------------------------------------------------------------------------------------------------|
E|-----------------------------------------------------------------------------------------------------------|

                 Bdim                     Bb
e|--3--3--3--3--3--------------------------------------------------------------------------|
B|-----------------6--6--6--6--6--6--6--6--3--3--3--3--3--3--3--3--3--3--3--3--3--3--3--3--|
G|--5--5--5--5--5--4--4--4--4--4--4--4--4--3--3--3--3--3--3--3--3--3--3--3--3--3--3--3--3--|
D|-----------------------------------------------------------------------------------------|
A|-----------------------------------------------------------------------------------------|
E|-----------------------------------------------------------------------------------------|


[Verse 2]

[Piano]

    Bb                      B                      Bb/F                   Baug                     Cm
e|--------------------------------------------------1--1--1--1--1--1--1--1--3--3--3--3--3--3--3--3--3--3--3--|
B|--3--3--3--3--3--3--3--3--4--4--4--4--4--4--4--4-----------------------------------------------------------|
G|--3--3--3--3--3--3--3--3--4--4--4--4--4--4--4--4--3--3--3--3--3--3--3--3--4--4--4--4--4--4--4--4--5--5--5--|
D|-----------------------------------------------------------------------------------------------------------|
A|-----------------------------------------------------------------------------------------------------------|
E|-----------------------------------------------------------------------------------------------------------|

                 Bdim                      Bb                     Eb
e|--3--3--3--3--3---------------------------------------------------------------------------|
B|-----------------6--6--6--6--6--6--6--6--3--3--3--3--3--3--3--3--4--4--4--4--4--4--4--4---| x1
G|--5--5--5--5--5--4--4--4--4--4--4--4--4--3--3--3--3--3--3--3--3--3--3--3--3--3--3--3--3---|
D|------------------------------------------------------------------------------------------|
A|------------------------------------------------------------------------------------------|
E|------------------------------------------------------------------------------------------|

    Cm                     Bdim                    Bb                     Eb
e|--3--3--3--3--3--3--3--3--------------------------------------------------------------------------|
B|--------------------------6--6--6--6--6--6--6--6--3--3--3--3--3--3--3--3--4--4--4--4--4--4--4--4--| x3
G|--5--5--5--5--5--5--5--5--4--4--4--4--4--4--4--4--3--3--3--3--3--3--3--3--3--3--3--3--3--3--3--3--|
D|--------------------------------------------------------------------------------------------------|
A|--------------------------------------------------------------------------------------------------|
E|--------------------------------------------------------------------------------------------------|

   Cm                     Bdim                     Bb
e|--3--3--3--3--3--3--3--3-----------------------------|
B|--------------------------6--6--6--6--6--6--6--6--3--|
G|--5--5--5--5--5--5--5--5--4--4--4--4--4--4--4--4--3--|
D|-----------------------------------------------------|
A|-----------------------------------------------------|
E|-----------------------------------------------------|

Bb                                  B                         Bb/F                           Baug
   Singsongs 'round the money tree, this stunning documentary that no one else unfortunately saw
Cm                         Bdim
Such beautiful photography, it's worth it for the opening scene,
 Bb                                        Eb
 I've been driving 'round listening to the score.
Cm                              Bdim
   Or maybe I just imagined it all
Bb                                   Eb
I've played to quiet rooms like this before
Cm                                   Bdim        Bb        Eb
Bear with me man, I lost my train of thought.

Cm    Bdim   Bb    Eb
Cm    Bdim   Bb


| /  slide up
| \  slide down
| h  hammer-on
| p  pull-off
| ~  vibrato
| +  harmonic
| x  Mute note

More chords by Arctic Monkeys: