Arctic Monkeys - Love Machine Guitar Chords

Arctic Monkeys

garage rock, indie rock, modern rock, permanent wave

Chords: G, Bb, C, D
[Intro and main riff]

e|-----------------|-----------------|-----------------|-----------------|
B|-----------------|-----------------|-----------------|-----------------|
G|-----------------|-----------------|-----------------|-----------------|
D|---------5-----3-|---3-3-2-2---0---|---------5-----3-|---3-3-2-2---0---|
A|-----------------|-----------------|-----------------|-----------------|
E|-3---------------|-----------------|-3---------------|-----------------|

e|-----------------|-----------------|-----------------|-----------------|
B|-----------------|-----------------|-----------------|-----------------|
G|-----------------|-----------------|-----------------|-----------------|
D|---------5-----3-|---3-3-2-2---0---|-----------------|-----------------|
A|-----------------|-----------------|-1---1---1---1-1-|-3---3-3---3-3---|
E|-3---------------|-----------------|-----------------|-----------------|

Chords for second guitar under main riff:
G (bar on fret 3)
Bb (bar on fret 6)
C (bar on fret 8)
with:
D (bar on fret 10)

[Intro]
G
Ladies you're damn right
You can't read a man's mind
We're living in two tribes
Bb                         C
And heading for war
G
Nobody's perfect
We've all got to work it
But fellas, we're worth it
Bb                           C
So don't break the law

G
Your call's late, big mistake
You've gotta hang about in limbo for as long as I take
                                        Bb             C
Next time, read my mind and I'll be good to you
G
We're gift-wrapped kitty cats
We're only turning into tigers when we gotta fight back
                         Bb           C
Let's go, Eskimo out into the blue

Bb
Come take my hand
Understand that you can
                                        C
You're my man and I need you tonight
Bb
Come make my dreams
Honey hard as it seems
                                  C    D
Loving me is as easy as pie, I

(then use G, Bb, C for Chorus...)

More chords by Arctic Monkeys: