Arctic Monkeys - I Bet You Look Good On The Dancefloor Guitar Chords

Arctic Monkeys

garage rock, indie rock, modern rock, permanent wave

Song versions: 1 2 3 4 5
Chords: F#5, C#5, B5, A5, E5
I BET YOU LOOK GOOD ON THE DANCEFLOOR     ARCTIC MONKEYS

[Intro]

F#5

C#5   B5   A5   F#5   ( x 4 )


[Verse]

C#5    B5        A5     F#5   C#5        B5         A5      F#5 
Stop making the eyes at me, I'll stop making the eyes at you
And what it is that suprises me, is that I don't really want you to
And your shoulders are frozen (cold as the night)
Oh but you're an explosion (you're dynamite)
Your name isn't Rio, but I don't care for sand
Lighting the fuse might result in a bang, with a bang-go!


[Chorus]

F#5                               A5
I bet that you look good on the dancefloor
                                    E5
I don't know if your looking for romance or...
                        F#5
I don't know what ya looking for
F#5                                   A5
Well I bet that you look good on the dancefloor
                    E5                     C#5               
Dancing to electro-pop like a robot from 1984 ... from 1984!


[Verse]

I wish you'd stop ignoring me, because you're sending me to despair
Without a sound yeah you're calling me, and I don't think it's very fair
That your shoulders are frozen (cold as the night)
Oh but you're an explosion (you're dynamite)
Your name isn't Rio, but I don't care for sand
Lighting the fuse might result in a bang, with a bang-go!

[Chorus]

F#5                               A5
I bet that you look good on the dancefloor
                                    E5
I don't know if your looking for romance or...
                        F#5
I don't know what ya looking for
F#5                                   A5
Well I bet that you look good on the dancefloor
                    E5                     C#5               
Dancing to electro-pop like a robot from 1984 ... from 1984!


[Bridge]

A5                        E5                 F#5
Oh there ain't no love no, Montagues or Capulets
                                   A5
Just banging tunes 'n' DJ sets 'n'
                E5                     F#5
Dirty dancefloors and dreams of naughtiness!


[Chorus]

I bet that you look good on the dancefloor
I don't know if your looking for romance or...
I don't know what yaou're looking for
Well I bet that you look good on the dancefloor
                    E5                    C#5         F#5
Dancing to electro-pop like a robot from 1984 from 1984!

 
[Chorus]

E|------------------------------------------------------------------------------------||
B|------------------------------------------------------------------------------------||
G|------------------------------------------------------------------------------------||
D|-4-4-4-4-4-4-4-4--7-7-7-7-7-7-7-7--14-14-14-14-14-14-14-14--16-16-16-16-16-16-16-16-||
A|-4-4-4-4-4-4-4-4--7-7-7-7-7-7-7-7--14-14-14-14-14-14-14-14--16-16-16-16-16-16-16-16-||
E|-2-2-2-2-2-2-2-2--5-5-5-5-5-5-5-5--12-12-12-12-12-12-12-12--14-14-14-14-14-14-14-14-||

E|------------------------------------------------------------------------------------||
B|------------------------------------------------------------------------------------||
G|------------------------------------------------------------------------------------||
D|-4-4-4-4-4-4-4-4--7-7-7-7-7-7-7-7--14-14-14-14-14-14-14-14--11-11-11-11-11-11-11-11-||
A|-4-4-4-4-4-4-4-4--7-7-7-7-7-7-7-7--14-14-14-14-14-14-14-14--11-11-11-11-11-11-11-11-||
E|-2-2-2-2-2-2-2-2--5-5-5-5-5-5-5-5--12-12-12-12-12-12-12-12--9--9--9--9--9--9---9--9-|| 

More chords by Arctic Monkeys: