Arco Iris - Zamba Guitar Chords

Chords: Am, G, LAm, Dm, C, B, Bb, E, F
Bueno, como no encontré ningunos acordes de esta gran canción.
Saque los acordes a oído, si están mal, por favor corrijan. Gracias


Am G Am G LAm


Am             G      Am
Bajos mis pasos reza una niña
          Dm
Del tibio rosario
   G     C
De arena y espacio

             B
De pronto la veo
Bb        Am
besando la escarcha
              B
que entre sus labios
          E
se vuelve cristal

             B
De pronto la veo
Bb        Am
besando la escarcha
              B
que entre sus labios
          E       Am G
se vuelve cristal

Am
Princesa chiquita
    G  Am
que vive sonriendo
           Dm
regalame un cuento
 G        C
una flor de algodon

              B
Me voy por un siglo
Bb          Am
Y con el sol vuelvo
           B
Crecen mis alas
      E
En el encuentro

              B
Me voy por un siglo
Bb          Am
Y con el sol vuelvo
           B
Crecen mis alas
      E        Am
En el encuentro

          Dm
Tocame la frente
G          C
Descubre mi tiempo
            Dm
Subete a mi espalda
  E          Am
Y volemos los dos

         Dm
Princesa Chiquita
         Am
que vive sonriendo
            B
regalame un cuento
    E      Am
una flor de algodon

         Dm
Princesa Chiquita
         Am
que vive sonriendo
            B
regalame un cuento
    E      Am
una flor de algodon


(FLAUTA)


Am             G      Am
Bajos mis pasos reza una niña
          Dm
Del tibio rosario
   G     C
De arena y espacio

             B
De pronto la veo
Bb        Am
besando la escarcha
              B
que entre sus labios
          E
se vuelve cristal

             B
De pronto la veo
Bb        Am
besando la escarcha
              B
que entre sus labios
          E       Am
se vuelve cristal

          Dm
Tocame la frente
G          C
Descubre mi tiempo
            Dm
Subete a mi espalda
  E          Am
Y volemos los dos

         Dm
Princesa Chiquita
         Am
que vive sonriendo
            B
regalame un cuento
    E      Am
una flor de algodon


         Dm
Princesa Chiquita
         Am
que vive sonriendo
            B
regalame un cuento
    E           F Dm Am (arpegio)
una flor de algodon

-------------------------------------------

Por si les interesa la parte de la flauta:

e|-8-7--------5-----------5/7--10-10-12-10-
B|-----5--5/7---7-5--5/7-------------------
G|-----------------------------------------
D|-----------------------------------------
A|-----------------------------------------
E|-----------------------------------------

e|------------------------13-11-----11-9-11-10-
B|13-15-13--11/13/11--11-------10--------------
G|---------------------------------------------
D|---------------------------------------------
A|---------------------------------------------
E|---------------------------------------------

e|-----20p-17-15----17--17-15---------------------------------------
B|---------------17-----------17-15--------12-9------------9--------
G|-----------------------------------14---------10-9--9/10---10-9---
D|------------------------------------------------------------------
A|------------------------------------------------------------------
E|------------------------------------------------------------------


Es mi primer aporte, espero que les sirva, serge.

More chords by Arco Iris: