Arcade Fire - Surf City Eastern Block Guitar Chords

Arcade Fire

alternative rock, canadian indie, chamber pop, garage rock

Chords: B, F#, A
-------------------------------------------------------------------------------
                   SURF CITY EASTERN BLOCK - The Arcade Fire
-------------------------------------------------------------------------------

Tabbed by: Jonnybin123
Email: Jonnybin123@hotmail.com

Tuning: Standard

    B  F# A  F#
E|-----2--0--2--------------------------------------|
B|--4--2--2--2--------------------------------------|
G|--4--3--2--3--------------------------------------|
D|--4--4--2--4--4--4--4--4--4--4--4--4--4--4--4--4--|
A|--2--4--0--4--4--4--4--4--4--4--4--4--4--4--4--4--|
E|-----2-----2--2--2--2--0--0--0--4--4--4--0--0--0--|

He usually doesn't play the full F# chord (just the power chord). Also, when switching 
the F# to the A, he adds the 4th fret on the E string to walk it up to the A.

This is the entire song I think, so just play this over and over again.


| /  slide up
| \  slide down
| h  hammer-on
| p  pull-off
| ~  vibrato
| +  harmonic
| x  Mute note
===============================================================================

More chords by Arcade Fire: