Arcade Fire - Peter Pan Guitar Chords

Arcade Fire

alternative rock, canadian indie, chamber pop, garage rock

Chords: Fm, Ab, Eb, Eb/G
Arcade Fire
"Peter Pan"

Standard tuning.

Key: Ab

  Guitar:        keyboard:
  Fm   Ab   Eb   Ab  Eb/G  Fm
e|8----4----11---9----11---8----|
B|9----4----11---11---11---9----|
G|10---5----12---11---12---10---|
D|10---6----13------------------|
A|8----6----13------------------|
E|-----4----11------------------|


[Intro]
  Fm
e|----------------|13----11--11-13-|13----11--11-13-|13----11--11-13-|13----11--11-13-|
B|----------------|--------13------|--------13------|--------13------|--------13------|
G|----------------|----------------|----------------|----------------|----------------|
D|----------------|----------------|----------------|----------------|----------------|
A|----------------|----------------|----------------|----------------|----------------|
E|----------------|----------------|----------------|----------------|----------------|
  Fm                                                                  Ab
e|13----11--11-13-|13----11--11-13-|13----11--11-13-|13------15------|16--------------|
B|--------13------|--------13------|--------13------|--------13------|----------------|
G|----------------|----------------|----------------|----------------|----------------|
D|----------------|----------------|----------------|----------------|----------------|
A|----------------|----------------|----------------|----------------|----------------|
E|----------------|----------------|----------------|----------------|----------------|

[Verse 1]
  Ab
e|----------------|----------------|----------------|----------------|
B|----------------|----------------|----------------|----------------|
G|--------------1-|--------------1-|--------------1-|--------------1-| guitar riff
D|3---3-1---1-3---|3---3-1---1-3---|3---3-1---1-3---|3---3-1---1-3---|
A|--------3-------|--------3-------|--------3-------|--------3-------|
E|----------------|----------------|----------------|----------------|

Ab
  In my dreams you're dying
                    Ab         Eb/G   Fm
  It wakes me up, I can't stop crying
Fm
  I just wanna live forever

  Keep my promises, keep it together
Ab
  In my dreams you're living
                        Ab         Eb/G  Fm
  Open your eyes, and I wake up forgiven
Fm
  Just a little something within the blood

  How can I live with so much love?

  Singing


[Chorus]
Ab
  Be my Wendy, I'll be your Peter Pan
               Ab Eb/G         Fm
  Come on baby,   take my hand
Fm
  We can walk if we don't feel like flying

  We can live, I don't feel like dying
Ab
  Be my Wendy, I'll be your Peter Pan
               Ab        Eb/G         Fm
  Come on baby,   you've got no plans
Fm
  Was it good? Got all the answers

  Man these women keep blowing their kisses saying

  Fm                                Eb
e|11----\-8-------|11----\-8-------|11----\-8-------|11----\-8-------|
B|----------------|----------------|----------------|----------------|
G|----------------|----------------|----------------|----------------|
D|----------------|----------------|----------------|----------------|
A|----------------|----------------|----------------|----------------|
E|----------------|----------------|----------------|----------------|
  Fm                                Eb
e|11--13----------|11--13----------|11--13----------|----------------|
B|--------13\-----|--------13\-----|--------13\-----|13\-11----------|
G|----------------|----------------|----------------|----------------|
D|----------------|----------------|----------------|----------------|
A|----------------|----------------|----------------|----------------|
E|----------------|----------------|----------------|----------------|

[Verse 2]
Ab
  In my dreams we're kissing
                      Ab     Eb/G        Fm
  It wakes me up when you've gone missin'
Fm
  Once so close, but we've grown apart

  And all the sickness, starts in the heart
Ab
  In my dreams you're dying
                        Ab         Eb/G   Fm
  It wakes me up, and I can't stop crying
Fm
  Cause its the day [?] of the American dream

  And it leaves you baby if you let it leave saying


[Chorus]
Ab
  Be my Wendy, I'll be your Peter Pan
               Ab Eb/G         Fm
  Come on baby,   take my hand
Fm
  We can walk if we don't feel like flying

  We can live, I don't feel like dying
Ab
  Be my Wendy, I'll be your Peter Pan
               Ab        Eb/G         Fm
  Come on baby,   you've got no plans
Fm
  Was it good? Got all the answers

  Man these women keep blowing their kisses saying

  Fm                                Eb
e|11----\-8-------|11----\-8-------|11----\-8-------|11----\-8-------|
B|----------------|----------------|----------------|----------------|
G|----------------|----------------|----------------|----------------|
D|----------------|----------------|----------------|----------------|
A|----------------|----------------|----------------|----------------|
E|----------------|----------------|----------------|----------------|
  Fm                                Eb
e|11--13----------|11--13----------|11--13----------|----------------|
B|--------13\-----|--------13\-----|--------13\-----|13\-11----------|
G|----------------|----------------|----------------|----------------|
D|----------------|----------------|----------------|----------------|
A|----------------|----------------|----------------|----------------|
E|----------------|----------------|----------------|----------------|


***********************************

| \   Slide-downup

***********************************

More chords by Arcade Fire: