Arcade Fire - Keep The Car Running Guitar Chords

Arcade Fire

alternative rock, canadian indie, chamber pop, garage rock

Song versions: 1 2 3 4 5
Chords: D5, Gadd9, Asus4, D, B
[Chords used]
D5    : 2005
Gadd9 : 0025
Asus4 : 2200
D     : 2002
B     : 4420

[Intro] 
(repeat as necessary)
(D5)
E|--------------------------------------------------------------------------|
A|--------0--0-------0--0---------------------------------------------------|
D|----00----0----00----0----------------------------------------------------|
G|--------------------------------------------------------------------------|

[Verse]
D5
Every night my dream's the same
Same old city with a different name
Gadd9
Men are coming to take me away
D5
Don't know why but I know I can't stay

[Verse]
D5
There's a weight that's pressing down
Late at night I can hear the sound
Gadd9
Even the noise you make when you sleep
D5
Can't swim across the river so deep

[Chorus]
Asus4                      D
They know my name 'cause I told it to them
         B                    D5                 
But they don't know where and they don't know when
                                D5
It's coming, when it's coming

[Verse]
D5
There's a fear I get so deep
Knew the sentence before I could speak
Gadd9            D5
Ohh Ohh Ohh Ohhh

[Chorus]
Asus4                      D
They know my name 'cause I told it to them
         B                    D5
But they don't know where and they don't know when
     Gadd9         D5             Gadd9
It's coming, or where but it's coming  
             D5 (Goes into Bridge/Intro part)
Keep the car running

[Bridge] 
(repeat as necessary)
(D5)
E|--------------------------------------------------------------------------|
A|--------0--0-------0--0---------------------------------------------------|
D|----00----0----00----0----------------------------------------------------|
G|--------------------------------------------------------------------------|

[Verse]
D5
If some night I don't come home

Please don't think I've left you alone
    Gadd9
The same place animals go when they die
D5
Can't climb across a mountain so high
    Gadd9
The same city where I go when I sleep
D5
Can't swim across a river so deep

[Chorus/Outro]
Asus4                      D
They know my name 'cause I told it to them
         B                    D5
But they don't know where and they don't know when
     Gadd9         D5             Gadd9
It's coming, oh when is it coming  
             D5
Keep the car running
             D5       Gadd9
Keep the car running
             D5       Gadd9
Keep the car running
             D5
Keep the car running

More chords by Arcade Fire: