Arcade Fire - Infinite Content Guitar Chords

Arcade Fire

alternative rock, canadian indie, chamber pop, garage rock

Chords: E5, B5, G#5, C#5
Arcade Fire
"Infinite Content"

Standard tuning.

  E5    B5   G#5  C#5
e|---------------------
B|---------------------
G|-9--------------6----
D|-9----9----6----6----
A|-7----9----6----4----
E|(0)---7----4---------




[Intro]
E5

[Verse]
E5
Infinite content
E5
Infinite content
      B5                 G#5
We're Infinitely content
E5
Infinite content
E5
Infinite content
      B5                 G#5
We're Infinitely content
E5
Infinite content
E5
Infinite content
      B5                 G#5
We're Infinitely content
E5
Infinite content
E5
Infinite content
      B5                 G#5
We're Infinitely content

[Chorus]
C#5                  E5                  B5
   All your money is already spent on it
C#5                  E5
   All your money is already spent
N.C.
   Infinite content

[Break]
  E5                                B5               G#5
e|4-----2-----4---|-2-----4---2----|----------------|----------------|
B|----------------|----------------|5-----4---------|----------------|
G|----------------|----------------|------------3b--|---------b4r3---|
D|----------------|----------------|----------------|----------------| x2
A|----------------|----------------|----------------|----------------|
E|----------------|----------------|----------------|----------------|

[Verse]
E5
Infinite content
E5
Infinite content
      B5                 G#5
We're Infinitely content
E5
Infinite content
E5
Infinite content
      B5                 G#5
We're Infinitely content

[Chorus]
C#5                  E5                  B5  G#5
   All your money is already spent on it
C#5                  E5                  B5  G#5
   All your money is already spent on it
C#5                  E5
   All your money is already spent
N.C.
   On infinite content

[Outro]
E5  B5  G#5

E5  B5  G#5
        Infinite content
E5  B5  G#5
        Infinite content
E5

  E5                                B5               G#5
e|4-----2-----4---|-2-----4---2----|----------------|----------------|
B|----------------|----------------|5-----4---------|----------------|
G|----------------|----------------|------------3b--|---------b4r3---|
D|----------------|----------------|----------------|----------------|
A|----------------|----------------|----------------|----------------|
E|----------------|----------------|----------------|----------------|

  E5
e|4-----2-----4---|-2-----4---2b---|----------------|----------------|
B|----------------|-----------4b---|----------------|----------------|
G|----------------|----------------|----------------|----------------|
D|----------------|----------------|----------------|----------------|
A|----------------|----------------|----------------|----------------|
E|----------------|----------------|----------------|----------------|



***********************************

| b   Bend
| r   Bend release

***********************************

More chords by Arcade Fire: