Arbol - Rosita Guitar Chords

Arbol

argentine rock, cumbia pop, latin alternative, latin rock

Song versions: 1 2
Chords: C, G, Fmaj7
C     G   C  C   Fmaj7 C

|-0-0-0-0-0-0--0-0-0-0-0-0-|
|-5-5-5-6-6-5--5-5-5-3-3-1-|
|--------------------------|
|--------------------------|
|--------------------------|
|--------------------------|

C            G        C
Gente fea, enferma y gris
C               Fmaj7-C
gente honesta que apesta
C             G        C
trenes que no me dejan dormir
C                    Fmaj7  C
perros que muerden a sus abuelas

son....
C           G    C
oh, oh, oh, motherfucker
C          Fmaj7 C
oh, oh, oh, motherfucker(bis)

Una, dos, tres tragedias
alimentan lo que es tu cuerpo
en piletas llenas de barro
nenas ahorcan a sus muñecas

son...
oh...

La armonica hace algo asi:

|-3-------------3------------|
|---5--3-1-3-5----5--3-1-3-1-|
|----------------------------|
|----------------------------|
|----------------------------|
|----------------------------|

espero ke les guste aguante arbol y lanús

More chords by Arbol: