Arbol - Chapusongs Guitar Chords

Arbol

argentine rock, cumbia pop, latin alternative, latin rock

Song versions: 1 2
Chords: A#, F, A, C, D#
Intro:
[A#-F]x2

A#
Mi padre baila
mi madre se le resbalo
gente chapusa
toca, toca el guitarron.

A#
El tio mama
la bufa se le disparo
la tia llora
lagrimas de coliflor.

F
Alguna vez,
alguna vez lo ves...

F
Alguna vez,
alguna vez no ves...

A#
La negra baila
el negro se le contagio
A Peste Rosa
pica como un culebron.

A#
Cuatro Estaciones
el La Menor de Bach
A orquesta toca
cumbia, reggeae y Cha Cha Cha...

F
Alguna vez,
alguna vez lo ves...

F
Alguna vez,
alguna vez no ves...

Solo:
e----3--------------------------------------1--|
B--6---6-4-3--------3-4--4-6-4-3----------1----|
G------------3--3-5--------------5-2--2-3------|
D----------------------------------------------|
A----------------------------------------------|
E----------------------------------------------|

e----3-----------------------------------------|
B--6---6-4-3--------3-4------4-4-----6--6-4----|
G------------3--3-5------3-3-----5-5-------5-3-|
D----------------------------------------------|
A----------------------------------------------|
E----------------------------------------------|

A#
Ya nadie baila
la fiesta se les embarro
Chaparra llora
y juega con un biberon

C
Habra que verlos
nadando por el suelo
bailando como peces
                  F
que comen de sus suenios.

C
Bailan,
y saben que es mentira,
que es una fantasia
                  F-A#
que muere al otro dia...

C
Bailan,
y saben que es mentira,
que es una fantasia
                  F-C
que muere al otro dia...

Inter: [A#]x3 [C]x3

C
Bailan,
y saben que es hermosa,
como una mariposa
                  F-A#
que muere al otro dia...

A#
Mi padre baila
mi madre se le resbalo
gente chapusa
toca, toca el guitarron.

A#
El tio mama
la bufa se le disparo
la tia llora
lagrimas de coli-

D#
Flores 
    A#
que sienten
    F           A#
que viven para siempre.

D#
Bailan
    A#
y sienten
    F           A#
que viven para siempre.

      D#
Ellos bailan
    A#
y sienten
    F           A#  [Final]
que viven para siempre.

Final:
e--------------------------|
B--------------------------|
G--------------------------|
D------1-1-----3~~--3-1----|
A--1-1-----3-3----------3-1|
E--------------------------|

A#
ROCK!


************************************************
              jmdzoom@
                   -jmd-

More chords by Arbol: