April Wine - Just Between You And Me Guitar Chords

April Wine

album rock, canadian indie, classic canadian rock, classic rock

Song versions: 1 2 3
Chords: G, Bm, C, Em, D, Am, Eb
Just Between You and Me - April Wine
Album: Nature of the Beast  1981
Tabbed by twoputt@mac.com
    Corrections are always welcome!


Intro:
  G         Bm       C                Em           D      C                 G 
e|-----------------|---------------|--------------------|-----------------|---------------|
B|-----------------|---------------|--------------------|-----------------|---------------|
G|-----------------|-3-------------|--4-5-7-5-----------|-----------------|---------------|
D|----3-5-3----3-5-|---------------|----------7-5---7/8-|---------------5-|---------------|
A|---3-------------|---------------|--------------7-----|-7---------5-7---|-5-------------|
E|-----------------|---------------|--------------------|-----------------|---------------|


Verse:
G              Bm     C
Time and time again I see
                   G          Em           Am           D
A love that seemed strong was not meant to be,
G                   Bm     C
Broken hearts don't always end,
Eb         G       Em        Am     D
Left too unsure to try love again.

                            Fill
                            |-----------------|
                            |-----------------|
                            |-----------------|
                            |-----5-7/9-7-----|
                            |-5-7-------------|
                            |-----------------|


Chorus:
G            D       C         G        Bm        C
Just between you and me baby I know our love will be
G            D       C            G        Bm        C
Just between you and me, always I know our love will be
G                    
Just between you and me


Interlude: (Same chords as intro)
    G  Bm  C    Em  D   C


Verse:
Lovers often seem to say
Hearts can be blind to love gone astray,
Always its the same old song,
Someone's been hurt by a love that's gone wrong.

Chorus:
Chorus:
G            D       C         G        Bm        C
Just between you and me baby I know our love will be
G            D       C            G        Bm        C
Just between you and me, always I know our love will be
G                    C                    G
Just between you ... Just between you and me


Solo: (Use chords from Chorus)
    G  D  C     G  Bm  C
    G  D  C     G  Bm  C 


Verse:
Words are sometimes hard to find
The silence can be so unkind
You always help me find my way
The love that we share grows stronger each day

Chorus:
Just between you and me baby I know our love will be
Just between you and me always I know our love will be
Just between you and me

"Seulement entre toi et moi" means that our love will always be
Just between you and me baby I know our love will be,
Just between you... Just between you and me.

Outtro:
   Em      D       C       D         G 
e|---------------|-----------------|-3----------|
B|---------------|-----------------|-3----------|
G|-9-------7-----|-5-------7-------|-0----------|
D|---9---9---7---|---5-------7---7-|-0----------|
A|-----7-------5-|-----3-------5---|------------|
E|---------------|-----------------|------------|

More chords by April Wine: