Aphrodite's Child - Marie Jolie Guitar Chords

Aphrodite's Child

art rock, canterbury scene, progressive rock, symphonic rock

Chords: F#m, B, E, C#m, G#m
-----------------------------------------------------------------------------
                                          Artist - Aphrodites Child
                                         ***************************
                                             Song - Marie Jolie 
                                            ********************
                                           Album - Greatest Hits 
                                          ***********************
                                           Tabbed By - Ayreon77
                                          **********************
-----------------------------------------------------------------------------
Tuning = Standard

R.I.P
Demis Roussos


INTRO
******
  F#m     B       E              F#m     B       E
e|-----0-|-----2-|------------0-|-----0-|-----2-|-12-12--12-|
B|---2---|---4---|-----0----0---|---2---|---4---|-----------|
G|-2-----|-4-----|---1----1-----|-2-----|-4-----|-----------|
D|-------|-------|-2------------|-------|-------|-----------|
A|-------|-------|--------------|-------|-------|-----------|
E|-------|-------|--------------|-------|-------|-----------|


VERSE 1
********
    F#m    B
Sometimes 
  E
I feel
    F#m   B
The time
E
Alone 
              F#m
Then I wonder what
  E
I do
              F#m
If I couldn't turn
   E
To you
               F#m
You are all my life
    C#m
And more

--------------------------------
CHORUS
*******
          F#m
Take this love I give
C#m G#m C#m              C#m G#m C#m
Marie   Jolie            Marie Jolie
e|-------------------|-----------------7-5-4-|
B|-------------------|---5----4----4-5-------|
G|-------------------|-6----4----6-----------|
D|---------------6---|-----------------------|
A|---------4-6-7---7-|-----------------------|
E|-------------------|-----------------------|

   
--------------------------------
VERSE 2
********
    F#m         B    E
The sea---------sons changed
    F#m      B  E
But lo-------ve remains
               F#m
Growing like a rose
   E
In spring
              F#m
Oh the summer sun
    E
Can bring
            F#m
I will find when
         C#m
I'm with you

--------------------------------
CHORUS
*******
        F#m
You are what I have

C#m G#m C#m      C#m G#m C#m
Marie   Jolie     Marie Jolie

--------------------------------
HARPSICHORD - F#m B E X2
************  F#m E X2
              F#m C#m F#m C#m G#m C#m   C#m G#m C#m


--------------------------------
VERSE 3
********
  F#m   B
I know
         E
There'll be
    F#m   B
Sad times
    E
For me
               F#m
But as long as you
    E
Are there
              F#m
I know that I need
   E
No care
             F#m
Love is everywhere
    C#m
You are


--------------------------------
CHORUS
*******
               F#m
My life is the glow

C#m G#m C#m      C#m G#m C#m
Marie   Jolie     Marie Jolie


--------------------------------
VERSE 4
********
    F#m   B
But if
    E
You keep
     F#m   B
Your love
     E
From me
               F#m
I will have no way
   E
To turn
               F#m
I will find it hard
   E
To live
            F#m
Living life without
  C#m
A dream

--------------------------------
CHORUS
*******
               F#m
Witch way will it be

C#m G#m C#m      C#m G#m C#m
Marie   Jolie     Marie Jolie


SPACEY KEYBOARD OUTRO
**********************
F#m B E X2



ENJOY.........

More chords by Aphrodite's Child: