Antonio Orozco - Tu Me Das Guitar Chords

Antonio Orozco

latin pop, spanish pop

Chords: D, A, Bm, G
  INTRO:
   
   D        A             Bm       G
 e|-----0-2-0------------0-2---------0------------------
 a|-3-3--------2-2-2-2-3------0-0-2-3---3-3-2-3-2-3-3---
 d|-----------------------------------------------------
 g|-----------------------------------------------------
 b|-----------------------------------------------------
 e|-----------------------------------------------------
   D        A             Bm       G
 e|-2-2-0---0----------2-0-0------------0---------------
 a|-------3----2-2-2-2-------3--0-0-2-3---3-3-2-3-2-3-3-
 d|-----------------------------------------------------
 g|-----------------------------------------------------
 b|-----------------------------------------------------
 e|-----------------------------------------------------

 D               A                  Bm
 Despierto y me inundas con tu noble aroma
               G                       D
 pretendes con tiento que me abrace a ti,
            A                Bm
 te gusta sentir el tacto de mis manos
              G
 usando mis dedos para hablar por mi.

 Me llevas volando al luthier del sentido
 donde las historias cobran forma al fin,
 canciones que portan tus dulces caricias
 y a veces la rabia contenida en mi. 

 D     SOl        A          G            _
 Tú me das, tú me das, luz en mi oscuridad     |
 D     G        A          G             |
 tú me das, tú me das, el derecho a soñar      |    ESTRIBILLO
 D     G        A          G             |(El ritmo se puede 
 tú me das, tú me das, otra forma de amar      |hacer mas rapido o 
 D     G        A          G             |   dejalo igual)
 tú me das, tú me das, mi guitarra me lo da.  _| 

 (Sigue el ritmo del estribillo,RE SOL LA SOL,
 y empieza otra vez la estrofa,RE LA sim SOL)

 Envidio tu calma, tu amor y sufrir
 alabo la angustia que me haces sentir,
 amontono el consuelo, al saber que en silencio
 siempre estás ahí. 

 Adornas las noches del color canela
 buscando el encuentro con la soledad,
 bordando a destellos hasta aquellos momentos
 en que me haces llorar.

 Tú me das, tú me das, luz en mi oscuridad...

 (Se toca la intro otra vez, y de fondo, RE LA sim SOL,
 y comienza otro vez el estribillo)

 Tú me das, tú me das, luz en mi oscuridad...

More chords by Antonio Orozco: