Anti-Flag - Hymn For The Dead Guitar Chords

Anti-Flag

melodic hardcore, pop punk, punk, ska punk

Song versions: 1 2
Chords: Bm, G, D, A
Tabbed By: Fabio BlenderBR

- Give your rating and help others users to find the best versions of the songs -


Sing a hymn for the dead
Because in death as in life
we are one in the same
Sing a hymn for the world
To avert eugenic errors, go!


Intro Riff:
e|----------------------------------------------------------|
B|3-3-2-3-2-3-2-3-2-3-2-3-2-----3-3-2-3-2-3-2-3-2-3-2-3-2-5-|
G|--------------------------4-2-----------------------------|
D|----------------------------------------------------------|
A|----------------------------------------------------------|
E|----------------------------------------------------------|

e|----------------------------------------------------------|
B|3-3-2-3-2-3-2-3-2-3-2-3-2-----3-2-3-2-3-2-3-2-3-2-3-2-----|
G|--------------------------4-2-------------------------2---|
D|----------------------------------------------------------|
A|----------------------------------------------------------|
E|----------------------------------------------------------|


Intro: 
Bm  G   D A   (2x)


Verse:
     Bm                
The sun sets, the light fades
      G               D     A
The blood red on an empty street
          Bm
It's not night, it's not day
         G                        D    A
It's no more, for an unfortunate soul who
G                              Bm
Witnessed his life violently erased, 

From the horror of the human race
G
Bright futures exchanged for profit, 
A
living half alive


Chorus:
        Bm            G
Sing a hymn for the dead

Because in death as in life
        D          A
we are one in the same
        Bm           G
Sing a hymn for the world
                D     A
To avert eugenic errors, go!


Intro Riff:
e|----------------------------------------------------------|
B|3-3-2-3-2-3-2-3-2-3-2-3-2-----3-3-2-3-2-3-2-3-2-3-2-3-2-5-|
G|--------------------------4-2-----------------------------|
D|----------------------------------------------------------|
A|----------------------------------------------------------|
E|----------------------------------------------------------|

e|----------------------------------------------------------|
B|3-3-2-3-2-3-2-3-2-3-2-3-2-----3-2-3-2-3-2-3-2-3-2-3-2-----|
G|--------------------------4-2-------------------------2---|
D|----------------------------------------------------------|
A|----------------------------------------------------------|
E|----------------------------------------------------------|


Intro: 
Bm  G   D A   (2x)


Verse 2:
    Bm                             G
In life now pay respects to your blood
              D           A
Those in the vast of the great
    Bm                       G        
Unknown, unite there, your heart's one 
                    D      A
in moments you'll never forget, yeah
G                                Bm
History lessons direct from the grave

Lost souls of the lost divide
G                   
Liberate your generation
A
living, rotting flesh


Chorus:
        Bm            G
Sing a hymn for the dead

Because in death as in life
        D          A
we are one in the same
        Bm           G
Sing a hymn for the world
                D     A
To avert eugenic errors, go!


Bridge:
G
Call out tyranny!
Bm
A spark of dissent can light a fury of flame
G                Bm
Call out to be free!

Bm  G  D  A    (4x)

Bm                        G
Sound off! Be the voice of a generation
D                       A
Dissent! You've got a choice to make
Bm                        G
Sound off! Be the voice of a generation
D                        A
Dissent! You've got a choice to make

Bm                         G
Strip away! Be the voice of a generation
D                          A
Strip away! You've got a choice to make
Bm          
Cut away! Cut away!
G
Strip away! Strip away!
D                          A
Cut away! Strip away your chains!


Chorus:
        Bm            G
Sing a hymn for the dead

Because in death as in life
        D          A
we are one in the same
        Bm           G
Sing a hymn for the world
                D     A
To avert eugenic errors, go!

        Bm            G
Sing a hymn for the dead

Because in death as in life
        D          A
we are one in the same
        Bm           G
Sing a hymn for the world
                D     A
To avert eugenic errors, go!

e|-------------------------|
B|-------------------------|
G|-7~----6~---6s7\4~-------|
D|-------------------------|
A|-------------------------|
E|-------------------------|

More chords by Anti-Flag: