Anthrax - You Gotta Believe Guitar Chords

Anthrax

album rock, alternative metal, groove metal, hard rock

Chords:
So, this is basically my first tab. Its crap. This song has never been tabbed(on this website) so this is a prompt and a 
Plead for someone else whos good at tabs to tab it. Its fairly acurate i think and ive only tabbed the rythm guitar. 
Thank. And again sorry that its so bad.        


[Intro]

     PM-----|   let ring
e|---------------------------------------------------------------|
B|---------------------------------------------------------------|
G|---------------------------------------------------------------|
D|-7---------10\7-------x-5--------------------------------------|
A|-7---------10\7------------------------------------------------|
E|-5-5-5-5-5-8\-5------------------------------------------------|

e|--------------------------------------------------------|
B|--------------------------------------------------------|
G|--------------------------------------------------------|
D|---------------------------2--------7-------10------x-2-|
A|-9-10-9-7-9-10-9-7-4-5-4-2---4-3-2--7-x--8--10-x--8-----|
E|------------------------------------5-------8-----------|

e|------------------------------------------------------|
B|------------------------------------------------------|
G|------------------------------------------------------|
D|---------------------------2--------7-------11--------|
A|-9-10-9-7-9-10-9-7-4-5-4-2---4-3-2--7-x--8--11-x--8---|
E|------------------------------------5-------9---------|

e|----------------------------------------------------------------------------------------|
B|----------------------------------------------------------------------------------------|
G|----------------------------------------------------------------------------------------|
D|---------------------------2--------7-------10------------------------------------------|
A|-9-10-9-7-9-10-9-7-4-5-4-2---4-3-2--7-x--8--10-x--8-------------------------------------|
E|------------------------------------5-------8-------------------------------------------|

[Verse]
Listen to the song for the speed and rythm
   PM     PM     PM
e|----------------------------------------------------------------------|
B|----------------------------------------------------------------------|
G|----------------------------------------------------------------------|
D|---------------------x-6----------------------------------------------|
A|--------------------------4---4-7--7-5-7-8----------------------------|
E|-2-x-9--2-x-9--0-x-3------2-0-2-5--5-3-5-6----------------------------|

   PM     PM     PM
e|-------------------------------------------------------------------------------------------|
B|-------------------------------------------------------------------------------------------|
G|-------------------------------------------------------------------------------------------|
D|---------------------x-2-------------------------------------------------------------------|
A|--------------------------4---4-7--7-5-7-8-------------------------------------------------|
E|-2-x-9--2-x-9--0-x-3------2-0-2-5--5-3-5-6-------------------------------------------------|


[Chorus]

e|--------------------------------------------------------------------------------------------------------|
B|--------------------------------------------------------------------------------------------------------|
G|--------------------------------------------------------------------------------------------------------|
D|---------------------------2--------7------10-----x-2---------------------------------------------------|
A|-9-10-9-7-9-10-9-7-4-5-4-2---4-3-2--7-x-8--10-x-8-------------------------------------------------------|
E|------------------------------------5------8------------------------------------------------------------|

[Verse]
   PM     PM     PM     PM     PM     PM     PM     PM
e|--------------------------------------------------------|
B|--------------------------------------------------------|
G|--------------------------------------------------------|
D|--------------------------------------------------------|
A|--------------------------------------------------------|
E|-2-x-9--2-x-9--0-x-3--2-x-9--2-x-3--8-x-3--7-x-3--5-x-3-|

   PM     PM     PM
e|-------------------------------------------------|
B|-------------------------------------------------|
G|-------------------------------------------------|
D|---------------------x-4-------------------------|
A|--------------------------4---4-7--7-5-7-8-------|
E|-2-x-9--2-x-9--0-x-3------2-0-2-5--5-3-5-6-------|

   PM     PM     PM
e|------------------------------------------------|
B|------------------------------------------------|
G|------------------------------------------------|
D|---------------------x-2------------------------|
A|--------------------------4---4-7--7-5-7-8------|
E|-2-x-9--2-x-9--0-x-3------2-0-2-5--5-3-5-6------|

[Chorus]
e|---------------------------------------------------------|
B|---------------------------------------------------------|
G|---------------------------------------------------------|
D|---------------------------2--------7-------10------x-2--|
A|-9-10-9-7-9-10-9-7-4-5-4-2---4-3-2--7-x--8--10-x--8------|
E|------------------------------------5-------8------------|

e|------------------------------------------------------|
B|------------------------------------------------------|
G|------------------------------------------------------|
D|---------------------------2--------7-------11--------|
A|-9-10-9-7-9-10-9-7-4-5-4-2---4-3-2--7-x--8--11-x--8---|
E|------------------------------------5-------9---------|

e|--------------------------------------------------------|
B|--------------------------------------------------------|
G|--------------------------------------------------------|
D|---------------------------2--------7-------10----------|
A|-9-10-9-7-9-10-9-7-4-5-4-2---4-3-2--7-x--8--10-x--8-----|
E|------------------------------------5-------8-----------|

[Breakdown]
e|----------------------------------|
B|----------------------------------|
G|----------------------------------|
D|------------------------------x-4-|
A|----------------------------------|
E|-14-15-14--14-15-14--14-15-13-----|

e|----------------------------------------------|
B|----------------------------------------------|
G|----------------------------------------------|
D|----------------------x-3---------------------|
A|-4/5\4--4/5\4--4/5\2-------4/5\4--4/5--2------|
E|-2/3\2--2/3\2--2/3\0-------2/3\2--2/3--0-x-8--|

e|------------------------------------------------|
B|------------------------------------------------|
G|------------------------------------------------|
D|----------------------x-3-----------------------|
A|-4/5\4--4/5\4--4/5\2-------4/5\4--4/5--2--------|
E|-2/3\2--2/3\2--2/3\0-------2/3\2--2/3--0-x-8----|

e|---------------------------|
B|---------------------------|
G|---------------------------|
D|----------------------x-4--|
A|-4/5\4--4/5\4--4/5\2-------|
E|-2/3\2--2/3\2--2/3\0-------|

e|---------------------------|
B|---------------------------|
G|---------------------------|
D|----------------------x-3--|
A|-4/5\4--4/5\4--4/5\2-------|
E|-2/3\2--2/3\2--2/3\0-------|

                     let ring
e|---------------------|
B|---------------------|
G|---------------------|
D|---------------------|
A|-4/5\4--4/5\4--4/5-5-|
E|-2/3\2--2/3\2--2/3-3-|

[Bridge]
[No Rythm. Lead and bass]
If you want the chords to this bit go

e|-------------------|
B|-------------------|
G|-------------------|
D|-4-------2-------5-|
A|-4-------2-------5-|
E|-2-------0-------3-|

[Distortion kicks in]

   PM            PM-----|
e|--------------------------|
B|--------------------------|
G|--------------------------|
D|-4--x-3-6----4---------7--|
A|-4-----------4---------7--|
E|-2-----------2-2-2-2-2-5--|

[Solo]

e|---------------------------------------------------------|
B|---------------------------------------------------------|
G|---------------------------------------------------------|
D|---------------------------2--------7-------10------x-2--|
A|-9-10-9-7-9-10-9-7-4-5-4-2---4-3-2--7-x--8--10-x--8------|
E|------------------------------------5-------8------------|

e|--------------------------------------------------------|
B|--------------------------------------------------------|
G|--------------------------------------------------------|
D|---------------------------2--------7-------11----------|
A|-9-10-9-7-9-10-9-7-4-5-4-2---4-3-2--7-x--8--11-x--8-----|
E|------------------------------------5-------9-----------|

e|--------------------------------------------------------|
B|--------------------------------------------------------|
G|--------------------------------------------------------|
D|---------------------------2--------7-------10------x-2-|
A|-9-10-9-7-9-10-9-7-4-5-4-2---4-3-2--7-x--8--10-x--8-----|
E|------------------------------------5-------8-----------|


[Chorus]
e|-------------------------------------------------------|
B|-------------------------------------------------------|
G|-------------------------------------------------------|
D|---------------------------2--------7------10-----x-2--|
A|-9-10-9-7-9-10-9-7-4-5-4-2---4-3-2--7-x-8--10-x-8------|
E|------------------------------------5------8-----------|

e|----------------|
B|----------------|
G|----------------|
D|-9------12------|
A|-9-x-8--12-x-8--|
E|-7------10------|

e|----------------|
B|----------------|
G|----------------|
D|-7------10------|
A|-7-x-8--10-x-8--|
E|-5------8-------|

[Outro]

e|---------------------------------x----|
B|---------------------------------x----|
G|---------------------------------x----|
D|---------------------------------x----|
A|-9-10-9-7-9-10-9-7-9-10-9-7--4/4\x----|
E|-----------------------------2/3\x----|




************************************

| x   Dead note
| g   Grace note
| (n) Ghost note
| h   Hammer-on
| p   Pull-off
| r   Release
| >   Accented note
| t   Tapping
| b   Bend
| br  Bend release
| pb  Pre-bend
| pbr Pre-bend release
| /   Slide up
| \   Slide down
| ~   Vibrato
| s   Slap
| P   Pop
| PM  Palm mute
| TR  Trill
| N   Tremolo

************************************

More chords by Anthrax: