Anthrax - Antisocial Guitar Chords

Anthrax

album rock, alternative metal, groove metal, hard rock

Chords: Cadd9, G, D, C, A, A7, F
Standard Tuning EADGBe

Intro Cadd9 G (x2)

e|-------0~--------------0~-----|---3----3~------------3---3~------|
B|--3-------3~------3-------3~--|---3-------3~---------3--------3~-|
G|--0---------------0-----------|---0------------------0-----------|
D|--2---------------2-----------|---0------------------0-----------|
A|--3---------------3-----------|---2------------------2-----------|
E|------------------------------|---3------------------3-----------|

(x2)

D   D+  C  A  A7 A

Verse 1: 

D 
You're a train ride to no importance 
D+
You're in love with hell existence 
C
Money is all that you desire 
A                            A7 A
Why don't you pack it in and retire 

D
It's common nature you can't fool me 
D+
I'm just the money that you can't let free 
C
Rainy day genius clouds your mind 
A                                 A7  A
Don't you realize the blind lead the blind 
(riff 2)

Chorus 1: 

D             D C            G       F  (riff 2)    
   You're anti,    you're antisocial 


(x4)


Verse 2: 

D
Oh mister time will you ever unwind 
D+
Or just rebuild a new design 
C
Your claim to fame is low and order 
A                          A7  A
The rich get rich, the poor get poor 

D
You put a price tag on what you see 
D+
This one's for you, that's for me 
C
If that's winning I'd rather lose 
A                             A7    A  
Why don't you listen to my senseless views 

Chorus 2: 

D             D C            G       F  (riff 2)    
   You're anti,    you're antisocial 


(x4)

How do you feel?

(play intro)

Verse 3 (also Verse 1): 

D 
You're a train ride to no importance 
D+
You're in love with hell existence 
C
Money is all that you desire 
A                            A7 A
Why don't you pack it in and retire 

D
It's common nature you can't fool me 
D+
I'm just the money that you can't let free 
C
Rainy day genius clouds your mind 
A                                 A7  A
Don't you realize the blind lead the blind 
(riff 2)


Chorus 3: 

D             D C            G       F  (riff 2)    
   You're anti,    you're antisocial 


(x4)



* - D+ refers to this chord (D augmented) xxo332



Riff 2: 

e\--------------------------\
B\--------------------------\
G\--------------------------\
D\---------0h3p0---------0--\
A\--0h3-------------3-------\
E\--------------------------\

More chords by Anthrax: