Antes de Caer - Aurora Guitar Chords

Chords: Cadd9, Dsus4, Em7, G, D/F#, B7, Em, Am, D
Antes De Caer (Chile)
Aurora
Album: Miseria
Instagram: Instagram.com/antesdecaeroficial
Spotify: spotify:artist:4wkGeaIAohRFaowkCefOg2


Tuning D Standard: DGCFAD         *Capo 1ºFt (Original Version)

Tuner Link: https://www.youtube.com/watch?v=nuHUYjFYfRU

--------- o ----------

Chords:


  Cadd9  Dsus4   Em7    G    D/F#    B7    Em    Am
1|--3---|--3---|--3--|--3--|--3---|--2--|--0--|--0--|
2|--3---|--3---|--3--|--3--|--3---|--0--|--0--|--1--|
3|--0---|--2---|--0--|--0--|--2---|--2--|--0--|--2--|
4|--2---|--0---|--2--|--0--|--0---|--1--|--2--|--2--|
5|--3---|--X---|--2--|--2--|--0---|--2--|--2--|--0--|
6|--X---|--X---|--X--|--3--|--2---|--X--|--0--|--X--|

Intro:
       Cadd9                  Dsus4        Em7
1|---------3---3-------------------3h2---------3---|
2|-----3-----------3----3------3-------3----3----3-|
3|------0----0---0---0----0-----2------------------|
4|-------2-------------2------0--0---------2--2----|  x2
5|--3-------------------------------------2--------|
6|-------------------------------------------------|

[Verse]
Cadd9                     Dsus4       Em7
       Aún recuerdo bien como pasó y no lo entiendo
Cadd9                 Dsus4     Em7
       el otoño de mis 22 cambió los cuerpos
Cadd9                 Dsus4              Em7
       si supiera como estás ,donde andarás, yo voy
Cadd9                 Dsus4        Em7
       pero seguiré cantando tu dirías eso.


Cadd9                         Dsus4      Em7
       Aún no sé bien por qué te tocó, no es correcto
Cadd9                   Dsus4          Em7
       me sentí como si viviera en el mismo infierno
Cadd9                    Dsus4        Em7
       pero se que tu dolor no se compara ,no
Cadd9                     Dsus4           Em7
       dicen que la gente buena es la primera al viento

[Bridge]
Em       Cadd9       G    D/F#
       Voy a estar bien, eso me dicen
   Em      Cadd9   Dsus4 - D - Dsus4
       Sin ti no sé.

[Chorus]
   G       D/F#   Em      Cadd9                  Dsus4         G - D/F# - B7
       Cuando   estoy refugiado en el sillón intentando oír su  voz
     B7         Em                Am
       y estoy mal porque se que no hay razón
               Cadd9      Dsus4
       porque tú no volverás más.
 
 --Después del coro viene el intro de nuevo --
 
Cadd9                       Dsus4      Em7
       y aunque ya no tenga dónde ir a refugiarme
Cadd9                     Dsus4        Em7
       en la larga vida a esperar y así encontrarte
Cadd9                    Dsus4         Em7
       se que todo ese dolor no se compara ,no
Cadd9                       Dsus4          Em7
       yo lo aprenderé a llevar aunque voy a extrañarte.

[Bridge]
Em       Cadd9       G    D/F#
       Voy a estar bien, eso me dicen
   Em      Cadd9   Dsus4 - D - Dsus4
       Sin ti no sé.

[Chorus] x2
   G       D/F#   Em      Cadd9                  Dsus4         G - D/F# - B7
       Cuando   estoy refugiado en el sillón intentando oír su  voz
     B7         Em                Am
       y estoy mal porque se que no hay razón
               Cadd9      Dsus4
       porque tú no volverás más.

[Outro]
Cadd9                         Dsus4         Em7     Cadd9
1|---------3---3-------------------3h2---------3------3--|
2|-----3-----------3----3------3-------3----3----3----3--|
3|------0----0---0---0----0-----2---------------------0--|
4|-------2-------------2------0--0---------2--2-------2--|  x2
5|--3-------------------------------------2-----------3--|
6|----------------------------------------------------X--|



************************************

| h  Hammer-on  

************************************

More chords by Antes de Caer: