Antarctigo Vespucci - 2 Days Live Acoustic Guitar Chords

Antarctigo Vespucci

alternative emo, folk punk, indie punk, modern rock

Chords: C, F2, G/C, F/C, G
Song: 2 Days (live acoustic)
Band: Antarctigo Vespucci
Tuning: Standard

This tab is based on the way Chris Farren played it acoustically on his online Stage It show. It’s slightly
different than the recorded version, but you can listen to the album version to get an idea of the timing and
strumming pattern.

Capo on 4

*All chords are relative to the capo*

   C     F2   G/C   F/C    G
e|-0-----1-----0-----0-----3--|
B|-1-----1-----1-----1-----3--|
G|-0-----0-----0-----2-----0--|
D|-2-----3-----2-----3-----0--|
A|-3-----3-----3-----3-----2--|
E|-------------3-----------3--|


Intro (strumming pattern is only a suggestion)
   C           F2        C           F2
e|-0---0--000--1111-0-0--0---0--000--1111-3-3----|
B|-1---1--111--1111-1-1--1---1--111--1111-1-1----|
G|-0---0--000--0000-0-0--0---0--000--0000-0-0----|
D|-0h2-2--222--3333-3-3--0h2-2--222--3333-0-0----|
A|-3---3--333--3333-3-3--3---3--333--3333-3-3----|
E|-----------------------------------------------|

   C           F2        C           C
e|-0---0--000--1111-0-0--0---0--000--0-0-000-----|
B|-1---1--111--1111-1-1--1---1--111--1-1-111-----|
G|-0---0--000--0000-0-0--0---0--000--0-0-000-----|
D|-0h2-2--222--3333-3-3--0h2-2--222--2-2-222-----|
A|-3---3--333--3333-3-3--3---3--333--3-3-333-----|
E|-----------------------------------------------|

Continue to hammer on the 2nd note of the C chord throughout the rest of the song

C                F2
Tie me down with ropes
              C           F2
Cause I can’t stay in one place
              C      F2
For more than 2 Days
                   C          
My wheels start to spin in place

C                 F2
Stitch me up with thread
           C            F2
I’m coming apart at the seams
           C      F2
And now it seems
               C                        F2(let ring)
You’re getting tired of this side of me

And so am I


REPEAT INTRO x1


C              F2
Let me off the phone
         C            F2
So I can sit at home alone
           C  F2
And watch TV
                  C           
And complain that nothing is inspiring me


G/C                         F/C
   From now on I’ll just pretend I am listening
G/C                         F/C
   When you tell me I don’t take anything seriously
G/C                         F/C
   From now on I’ll just pretend I’m listening
G/C             G           F/C
   ‘Til there’s nothing in my way

‘Til there is nothing in my way


REPEAT INTRO X1

*strike each chord once and let them ring*
C                F2
Tie me down with ropes
              C           F2
Cause I can’t stay in one place
              C
For more than 2 days...

More chords by Antarctigo Vespucci: