Anssi Kela - Uudet Autot Guitar Chords

Anssi Kela

finnish dance pop, finnish hip hop, finnish pop, iskelma

Chords: C, Am, Fmaj7, FmM7, F, G, D, Bm, Bb, G#
Capo 2

Alla olevaa näppäily soi läpi kappaleen, refraineja ja väliosaa lukuunottamatta.

   C                                Am
e|--------------------------------|-------------------------------------------|
B|------1---3-----3-1-----0-------|-----1---3-----3-1-----0-------------------|
G|----0---0---0-------0-----0---0-|---2---2---2-------2-----2---2-------------|
D|--------------2-------2-----2---|-------------2-------2-----2---------------|
A|-3------------------------------|-0-----------------------------------------|
E|--------------------------------|-------------------------------------------|

   Fmaj7                            FmM7
e|-----------------0--------------|-----------------0-------------------------|
B|-----1---3-----3---1---3--------|-----1---3-----3---1---3-1-----------------|
G|---2---2---2---------2---2---2--|---1---1---1---------1---------------------|
D|-3-----------3-------------3----|-3-----------3-----------------------------|
A|--------------------------------|-------------------------------------------|
E|--------------------------------|-------------------------------------------|

C Am

C                        
Lähden Nooran kanssa ajelemaan
Am
Hän tahtoo ajaa uutta autoaan
Fmaj7
Sen varovasti henkiin herättää
FmM7
Ulos kaupungista kiihdyttää
C
Sukellamme syksyn pimeyteen
Am
Laitan levyn cd-soittimeen
Fmaj7
Säädän ilmastoinnin kohdalleen
      F           G
Miksi uudet autot tuoksuu tältä?

C Am

C
Valoissa kiiluu silmät eläimen
Am
Juoksevan metsään näen jäniksen
Fmaj7
Ei tähän aikaan liiku mikään muu
FmM7
Ajamme kilpaa kanssa täysikuun
C
Äkkiä Noora minuun vilkaisee
Am
Hehkussa mittariston hymyilee
Fmaj7
Käteeni tarttuu, sitä puristaa
      F           G
Miksi uudet autot tuoksuu tältä?

D Bm
D Bm Bb

C
Emme puhu moneen kilometriin
Am
Kumpikin vaipunut on ajatuksiin
Fmaj7
Täydellinen levy öiseen ajeluun
FmM7
On Neil Youngin Harvest Moon
C
Ambulanssi meidät ohittaa
Am
Mihinköhän mahtaa kiiruhtaa?
Fmaj7
Luen mielessäni rukouksen:
    F
Voi Noora, Noora
G                  C  Am
Olethan varovainen
    F
Voi Noora, Noora
G                 
Olethan varovainen

C Am
C Am
G# Bb C 

More chords by Anssi Kela: