Another Sunny Day - Whats Happened To You My Dearest Friend Guitar Chords

Another Sunny Day

c86, twee pop

Chords: Ab, Bbm, Cm, Db, Eb
[Verse 1]
Ab            Bbm
 We were both young once
 Cm                 Db            Ab
 Young and proud to feel so carefree
         Bbm
 Days of innocence
     Cm                         Db         Ab
 But people can change and they do so easily
                Bbm
 And now you've grown up
     Cm                  Db             Ab
 I'm so surprised at how little time it takes
                Bbm
 And how you've changed now
     Cm                      Db               Eb
 I'm always amazed at what a difference money makes

[Chorus]
                   Db
What's happened to you?
                  Eb
What's happened to me?
           Db
Now I'm confused
            Eb
Who am I supposed to be?
               Db
Then I look at you
            Eb
And I can't comprehend
                   Db
What's happened to you
       Ab          Bbm Cm Db
My dearest friend

[Instrumental]
Ab Bbm Cm Db

[Verse 2]
Ab              Bbm
 And now you've won yourself
     Cm                     Db        Ab
 A position and sense of responsibility
               Bbm
 You're in the best of health
 Cm                      Db             Ab
 Living with friends and staying so happy
            Bbm 
 As long as you're content
    Cm              Db                Ab
 As long as this is what you want to be
          Bbm
 I'm very pleased for you
     Cm                 Db             Eb
 But what you are means nothing now to me

[Chorus]
                   Db
What's happened to you?
                  Eb
What's happened to me?
           Db
Now I'm confused
            Eb
Who am I supposed to be?
               Db
Then I look at you
            Eb
And I can't comprehend
                   Db
What's happened to you
       Ab          Eb
My dearest friend

[Instrumental]
Ab Eb (x3)

[Solo]
e|-4-3-1----------------|-4-3-1--------------------|
B|-------4-2--2-3-4-2-1-|-------4-2--2-3-4-2-1-2-1-|
G|----------------------|--------------------------|
D|----------------------|--------------------------|
A|----------------------|--------------------------|
E|----------------------|--------------------------|

e|-9-8------------8-7-9-8-11-9-8-|-8-9-8-11-9-8-8-9-8-9-8-11-9-8-9-8----|
B|-----11-9-9--11----------------|-----------------------------------11-|
G|-------------------------------|--------------------------------------|
D|-------------------------------|--------------------------------------|
A|-------------------------------|--------------------------------------|
E|-------------------------------|--------------------------------------|

[Instrumental]
Eb Db (x4)
Eb
Ab Eb (x3)

[Outro]
Ab Db Eb Ab

More chords by Another Sunny Day: