Año Cero - Intenso Amor Guitar Chords

Año Cero

rock cristiano

Chords: E, B, G, D, A, Em7, Cadd, C, Em
ESTE INTRO LLEBA DOS TONOS PERO NO SE COMO SE YAMAN PERO AKI ESTAN


  tono1 tono2
E   3    2
B   3    3
G   0    0
D   0    0
A   2    2
E   x    x

G
A donde ballas ire
Em7
recuerdo aberlo dicho antes
Caad                          G
cerca de ti estare para siempre

G
una oleada de amor
Em7
pudo cubrir mi maldad
Caad                             G
todo el misterio de ¿velad? para siempre


CORO
             Caad         G
//intenso amor vitalmente hoy
               Caad          G
estar junto a ti me buelbe el vivir
Em7   Dsus/F# Caad
estar asi me basta//

G
una oleada de amor
Em7
pudo cubrir mi maldad
Caad                             G
todo el misterio de ¿velad? para siempre

 Caad                  Em7          Dsus/F#
absurdo final de ficcion   divino deseo

(el solo ba en Cadd Em7 Cadd G cheken el rekinto)

Em7   Dsus/F#  Caad
estar asi me basta

CORO
             Caad         G
//intenso amor vitalmente hoy
               Caad          G
estar junto a ti me buelbe el vivir
Em7   Dsus/F# Caad
estar asi me basta//

  TONOS
   G  Em7  Dsus/F#  Cadd
E  3   3     3       3
B  3   3     3       3
G  0   0     2       0
D  0   2     0       2
A  2   2     0       3
E  3   0     2       X


                          ESTE SOLO ESTA BIEN FACIL

  C                            Em                  C                G
e=-------------------------------|-------------------15--15-----------|
B=10/12-10-8-10-8-8--------------|-----10-12-13-15-17--17--17-15/17-17|
G=-----------------10/12-11-9--12|10/12-------------------------------|
D=---------------------------12--|------------------------------------|
A=-------------------------------|------------------------------------|
E=-------------------------------|------------------------------------|

e=--------------------------------------|
B=13-12-13-12-12-12-13-12---------------|
G=-----------------------14-12--12-14-12|
D=----------------------------14--------|
A=--------------------------------------|
E=--------------------------------------|


BUENO CREO KE ES TODA LA CANCION PARA CUALKIER DUDA
xsney_10@ OK SLAE SE CUIDAN DTB BYE

More chords by Año Cero: