AnnenMayKantereit - Länger Bleiben Guitar Chords

AnnenMayKantereit

german pop, german rock

Chords: Gm, Dm, Am, A, F, G, A#, E, Em, Bm, F#m, F#, D, C#
Tuning: Standard

Akkorde im Intro und den Versen:
   Gm  Dm  Am
e|-3---5---5--|
B|-3---6---5--|
G|-3---7---5--|
D|-5---7---7--|
A|-5---5---7--|
E|-3---5---5--|

Die Griffe für die Akkordabfolge im Chorus gehen wie folgt:
(es können aber auch die Standardgriffe verwendet werden)
   Dm   A   F   G   A#  Dm  E   A
e|-10---9---8---7---6---5---4---5--|
B|-10---10--10--8---6---6---5---5--|
G|-10---9---10--7---7---7---4---6--|
D|-12---11--10--9---8---7---6---7--|
A|-12---12--8---10--8---5---7---7--|
E|-10---9---8---7---6---5---4---5--|

[Info]
Es kann mit Capo im 3. Bund gespielt werden, was das Picking ein wenig erleichtert.
Akkorde ändern sich dann wie folgt:
Intro & Vers: Em Bm F#m
Chorus: Bm F# D E G Bm C# F#
Die Griffe für die Akkorde bleiben dennoch exakt derselben Stellen,
als würde man ohne Capo spielen.

[Intro]
  Gm                Gm                Gm                Gm
e|-----------------|-----------------|-----------------|-----------------|
B|-----3-----3-----|-5p3---5---3-----|-----3-----3-----|-5p3---5---6---0-|
G|---3-----3-----3-|-----3---------3-|---3-----3-----3-|-----3-----------|
D|-5-----5-----5---|-----------------|-5-----5-----5---|-----------------| 2x
A|-----------------|-----------------|-----------------|-----------------|
E|-----------------|-----------------|-----------------|-----------------|
  Gm                Gm                Gm                Gm             Dm 
e|-----------------|-----------------|-----------------|-----------------|
B|-----3-----3-----|-5p3---5---3-----|-----3-----3-----|-5p3---5---6-----|
G|---3-----3-----3-|-----3---------3-|---3-----3-----3-|-----3---------7-|
D|-5-----5-----5---|-----------------|-5-----5-----5---|--------------(7)|
A|-----------------|-----------------|-----------------|-----------------|
E|-----------------|-----------------|-----------------|-----------------|
  Dm                Dm                Dm             Am 
e|-----------------|-----------------|-----------------|-----------------|
B|-----6p5---5-----|-5h6---6---------|-----6p5---5---5-|-----------------|
G|-----7---------7-|-------7---7-----|-----7---------5-|-----------5-----|
D|----(7)----------|------(7)-(7)----|----(7)--------7-|---7---7-----7p5-|
A|-----------------|-----------------|-----------------|-----------------|
E|-----------------|-----------------|-----------------|-----------------|

[Verse 1]
Gm
Die nächste Bahn kommt eh erst inner Stunde.

Komm ich  hol noch 'ne Runde
             Dm
und ich muss auch früh raus.
                            Am
Das ist keine gute Ausrede.
Gm
Und bei dem Regen würd' ich eh nich nach Hause gehen,

du kannst gern mal nach draußen sehen.
Dm
Das ist 'ne viel bessere Ausrede als deine.
                         Am
Du weißt, was ich meine.
Gm
Und du musst nicht, aber du könntest
        Dm
noch 'n bisschen
                Am
länger bleiben.

[Chorus]
Dm                A
  Willst du nicht   länger bleiben?
F                   G
  Das ist echt kein Problem.
A#                       Dm
  Willst du nicht länger bleiben?
    E                           A
Und warum willst du jetzt schon gehen?
Dm                A
  Willst du nicht   länger bleiben?
F                   G
  Das ist echt kein Problem.
A#                       Dm
  Willst du nicht länger bleiben?
    E                           A
Und warum willst du jetzt schon gehen?

[Interlude]
  Gm                Gm                Gm                Gm             Dm 
e|-----------------|-----------------|-----------------|-----------------|
B|-----3-----3-----|-5p3---5---3-----|-----3-----3-----|-5p3---5---6-----|
G|---3-----3-----3-|-----3---------3-|---3-----3-----3-|-----3---------7-|
D|-5-----5-----5---|-----------------|-5-----5-----5---|--------------(7)|
A|-----------------|-----------------|-----------------|-----------------|
E|-----------------|-----------------|-----------------|-----------------|
  Dm                Dm                Dm             Am
e|-----------------|-----------------|-----------------|-----------------|
B|-----6p5---5-----|-5h6---6---------|-----6p5---5---5-|-----------------|
G|-----7---------7-|-------7---7-----|-----7---------5-|-----------5-----|
D|----(7)----------|------(7)-(7)----|----(7)--------7-|---7---7-----7p5-|
A|-----------------|-----------------|-----------------|-----------------|
E|-----------------|-----------------|-----------------|-----------------|

[Verse 2]
Gm
Soll ich noch kurz zum Kiosk gehen?

Und dann kauf' ich so 'ne billige Flasche Wein
        Dm
und die trinken wir zu zweit
                                Am
und dann rauchen wir am Fenster.
Gm
Aber wir müssen 'n bisschen leiser sein,

sonst wacht mein Mitbewohner auf
Dm                                   Am
und dann will der auch 'was trinken.
Gm
Und du probierst schon den ganzen Abend zu gehen,

ohne dass es komisch ist.
         Dm
Aber ich sorg schon dafür,
                           Am
dass es immer komisch ist.

[Chorus]
Dm                A
  Willst du nicht   länger bleiben?
F                   G
  Das ist echt kein Problem.
A#                       Dm
  Willst du nicht länger bleiben?
    E                           A
Und warum willst du jetzt schon gehen?
Dm                A
  Willst du nicht   länger bleiben?
F                   G
  Das ist echt kein Problem.
A#                       Dm
  Willst du nicht länger bleiben?
    E                           A      Dm A F G A# Dm
Und warum willst du jetzt schon gehen?
    E                           A      Dm A F G A# Dm
Und warum willst du jetzt schon gehen?
    E                           A      Dm
Und warum willst du jetzt schon gehen?

More chords by AnnenMayKantereit: