Anna Ternheim - Loneliness Is Gone Guitar Chords

Anna Ternheim

classic swedish pop, swedish alternative rock, swedish folk pop, swedish pop

Chords: Am, C, G, F, Em, AM
Capo 1
för att matcha skivan

[Intro]

 | Am | C | G | G | F | G | 


[Verse]

Am    G              F       F
      Can you keep a secret
Am          G       Em    Em
I'm just as weak as you
 Am   G          F           F
Afraid of living without you
 Am       G            Em   Em
Afraid of dying out of love


[Refrain]

        F   F  Am               G        F      F
It's a new     thing I have for you, I'm alone
        Am            G
But the loneliness is gone


[Interlude]

 | Am | C | G | G | F | G | 


[Verse]

Am    G              F       F
Some kind of space we live in
Am          G       Em    Em
Emptiness grows from inside
 Am   G           F           F
On our own we are weightless
 Am       G         Em    Em
With you I stand my ground


[Bridge]

       F   F  Am             G 
Always be     better half of me
       F   F  Am               G       F     F
It's a new    thing I have for you I'm alone
        Am            G    F    F
But the loneliness is gone
    Am            G
The loneliness is gone

[Outro]

 | Am | C | G | G | F | G | x2
 | Am | Am | Am | Am | G | Am | Em | x2


[Chords]

AM
|----------------|
|1-----1---------|
|--2-------2-----|
|----------------|
|----------------|
|0---0---0---0---|
|----------------|

AM (Barré)
|----------------|
|----------------|
|5-----5---------|
|--7-------7-----|
|----------------|
|5---5---5---5---|

C
|0-----0---------|
|--1-------1-----|
|----------------|
|----------------|
|3---3---3---3---|
|----------------|

G
|----------------|
|0-----0---------|
|--0-------0-----|
|----------------|
|----------------|
|3---3---3---3---|

G(Barré)
|----------------|
|----------------|
|4-----4---------|
|--5-------5-----|
|----------------|
|3---3---3---3---|


F
|----------------|
|----------------|
|2-----2---------|
|--3-------2-----|
|----------------|
|1---1---1---1---|

Em
|----------------|
|----------------|
|0-----0---------|
|--2-------2-----|
|----------------|
|0---0---0---0---|

AM
|----------------|
|1-----1---------|
|--2-------2-----|
|----------------|
|----------------|
|0---0---0---0---|
|----------------|

Lång
t.ex G
|--------------------------------|
|0-----0-------0-------0---------|
|--0-------0-------0-------0-----|
|--------------------------------|
|--------------------------------|
|3---3---3---3---3---3---3---3---|

More chords by Anna Ternheim: