Anna Hanski - Tunteisiin Guitar Chords

Anna Hanski

classic finnish pop, classic iskelma, finnish pop, iskelma

Chords: Em, D, A, Bm, G, G/A
Salatut elämät -sarjan tunnusmusiikki kokonaisuudessaan. En ole itse tabittanut/soinnuttanut.

[Intro]
         Em    D         A            Em    D         A                  Bm
e|----------------------------|---------------------------------------------|
B|-0-5-7-8-----7---8--7--5-5--|-0-5-7-8-----7---8--7--5-5----5-7-5----------|
G|----------------------------|------------------------------------7-4---4--|
D|----------------------------|----------------------------------------7----|
A|----------------------------|---------------------------------------------|
E|----------------------------|---------------------------------------------|

[Verse 1]
     Bm      A              D      G           Bm             A            G
e|-------------------------------------33-2-0----------------------------------------|
B|---------------------3-5-3-----------------3-0-------------------------------------|
G|-----------------2-4---------------------------------------------------------------|
D|-----------------------------------------------------------------------------------|
A|-----------------------------------------------------------------------------------|
E|-----------------------------------------------------------------------------------|
     On yksi muisto,       tän kaupungin,        liikun ihmisvirrassa, mä haikein askelin


     Bm           A              D       G             Bm        A             G
e|--------------------------------------------33-2-0---------------------------------|
B|-2-3----------------------3-5-3--------------------3-0-----------------------------|
G|-2-2------------------2-4----------------------------------------------------------|
D|-----------------------------------------------------------------------------------|
A|-----------------------------------------------------------------------------------|
E|-----------------------------------------------------------------------------------|
     mua vastaan kulkee,          kasvoja vain,          en tunnista mä niistä sua rakkaimpain,

G
joka paikasta sua hain

[Chorus]
      A Bm       G           D
tunteisiin, sisimpääni matkustan
       A Bm         G
joo ja niin, taakse verhon kurkistan
      A Bm        G
tunteisiin, kivet käännän kyljelleen
   A             Bm       G
en enää jää vain paikoilleen

eteenpäin mä meen.

[Solo]
         Em    D         A            Em    D         A                  Bm
e|----------------------------|---------------------------------------------|
B|-0-5-7-8-----7---8--7--5-5--|-0-5-7-8-----7---8--7--5-5----5-7-5----------|
G|----------------------------|------------------------------------7-4---4--|
D|----------------------------|----------------------------------------7----|
A|----------------------------|---------------------------------------------|
E|----------------------------|---------------------------------------------|

[Verse 2]
     Bm        A                  D           G           Bm          A              G
e|------------------------------------------------33-2-0--------------------------------------|
B|--------------------------3-5-3------------------------3-0----------------------------------|
G|----------------------2-4-------------------------------------------------------------------|
D|--------------------------------------------------------------------------------------------|
A|--------------------------------------------------------------------------------------------|
E|--------------------------------------------------------------------------------------------|
     Mä seison sillalla,          eteen heijastuu,          peilikuva kaupungista, se yöhön pukeutuu,


     Bm          A                D               G          Bm             A              G
e|---------------------------------------------------33-2-0----------------------------------|
B|-2-3----------------------3-5-3---------------------------3-0------------------------------|
G|-2-2------------------2-4------------------------------------------------------------------|
D|-------------------------------------------------------------------------------------------|
A|-------------------------------------------------------------------------------------------|
E|-------------------------------------------------------------------------------------------|
     Valinnat ja tunteet,         kysymykset ihmisten,          mitä tahdon elämältä, sitä vielä tiedä en,

G
aion kokea mä sen

[Chorus]
      A Bm       G           D
tunteisiin, sisimpääni matkustan
       A Bm         G
joo ja niin, taakse verhon kurkistan
      A Bm        G
tunteisiin, kivet käännän kyljelleen
   A             Bm       G
en enää jää vain paikoilleen

                   Em    D          A     
e|---------------------------------------|
B|------------0-5-7-8-----7---8--7--5-5--|
G|---------------------------------------|
D|---------------------------------------|
A|---------------------------------------|  x3
E|---------------------------------------|
   eteenpäin mä meen           


   A                Em    D         G/A     
e|----------------------------------------|
B|------------0-5-7-8-----7---8-8-8-8/10--|
G|----------------------------------------|
D|----------------------------------------|
A|----------------------------------------|
E|----------------------------------------|
   eteenpäin mä meen          


[Chorus]
      A Bm       G           D
tunteisiin, sisimpääni matkustan
       A Bm         G
joo ja niin, taakse verhon kurkistan
      A Bm        G
tunteisiin, kivet käännän kyljelleen
   A             Bm       G
en enää jää vain paikoilleen
      A Bm       G           D
tunteisiin, sisimpääni matkustan
       A Bm         G
joo ja niin, taakse verhon kurkistan
      A Bm        G
tunteisiin, kivet käännän kyljelleen
   A             Bm       G
en enää jää vain paikoilleen

[Outro]
   G                Em    D         A     
e|---------------------------------------|
B|------------0-5-7-8-----7---8--7--5-5--|
G|---------------------------------------|
D|---------------------------------------|
A|---------------------------------------|
E|---------------------------------------|
   eteenpäin mä meen           


   A                Em    D         A     
e|---------------------------------------|
B|------------0-5-7-8-----7---8--7--5-5--|
G|---------------------------------------|
D|---------------------------------------|
A|---------------------------------------|
E|---------------------------------------|
   eteenpäin mä meen           


   A                Em    D         A     
e|---------------------------------------|
B|------------0-5-7-8-----7---8--7--5-5--|
G|---------------------------------------|
D|---------------------------------------|
A|---------------------------------------|  (fade out)
E|---------------------------------------|
   joo mä meen


********************

/ slide up

More chords by Anna Hanski: