Animal Collective - Seal Eyeing Guitar Chords

Animal Collective

alternative dance, alternative rock, art pop, chamber pop

Chords: G#9, D, D#m7, Fm7, C#5
-------------------------------------------------------------------------------
                             Seal Eyeing - Animal Collective
-------------------------------------------------------------------------------
Tabbed by: armando ortiz
E-mail: ihugapples@gmail.com

Tuning: Standard

Chords:
      e|-----6-----6-----6-----6---|
      B|--------6-----6-----6------|
      G|--6-----6-----6-----6------|
C#5 = D|--6-----6-----6-----6------|   (in outro just strum these out)
      A|--4-----4-----4-----4------|
      E|---------------------------|

      e|--4--6--4--6--4--6--4--6---|
      B|--4--4--4--4--4--4--4--4---|
      G|--5--5--5--5--5--5--5--5---|
G#9 = D|--4--4--4--4--4--4--4--4---|
      A|--6--6--6--6--6--6--6--6---|
      E|--4--4--4--4--4--4--4--4---|

       e|--6--|             e|---8--|
       B|--7--|             B|---9--|
       G|--6--|             G|---8--|
D#m7 = D|--8--|       Fm7 = D|--10--|
       A|--6--|             A|---8--|
       E|--x--|             E|---x--|

Song:

|C#5 G#9|x2

C#5
me,
G#9
slowly walking, going to see the 
C#5
seal
G#9
swimming in the lake of melted 
D#m7
ice.
     Fm7
The minnows they are catching must be
    D#m7
good.
     Fm7
They stay so long, entreat us to
    C#5
write
   G#9
Of getting close to nature. People 
C#5
know:
       G#9
It's a good time for a photo, can't let 
C#5
go.

        G#9
But the ice should not be melting every-
C#5
where,
G#9
Swimmin' around and melting on the
     D#m7
shore.
    Fm7
Our shores will all be dripping round a
     D#m7
swirl.
               Fm7
Now there's no time for a photo but

        Outro (strum these out):
C#5  G#9      C#5     G#9
  Ah, good to swim in sunshine...
C#5  G#9    C#5 G#9
  Ah, good  to  swim in sunshine... (repeat final line many times)


************************************

| /   slide up
| \   slide down
| h   hammer-on
| p   pull-off
| ~   vibrato
| +   harmonic
| x   Mute note
| b   Bend
| pb  Pre-bend
| br  Bend release
| pbr Pre-bend release
| brb Bend release bend

************************************

More chords by Animal Collective: