Angel O Demonio - Le Prometiste Guitar Chords

Chords: E5, A5, D5, G5, E, A, D, G, G#m, B
Esta es una gran rola del Angel o Demonio
espero les agrade


                                            |
E------------|------------|------------|    |
B------------|------------|------------|    |
G------------|------------|------------|    |
D------------|------------|------------|    |
A------------|------------|--0---2---3-|    |
e--0---2---3-|--0---2---3-|------------|    |
                                            |
E------------|------------|--------------|  |
B------------|------------|--------------|  |
G------------|------------|--------------|  |
D------------|--0---2---4-|--0---2---4---|  |(Bajeo 1)
A--0---2---3-|------------|--------------|  | X2
e------------|------------|--------------|  |
                                            |
E-----------|----|                          |
B-----------|----|                          |
G-0---2---4-|----|                          |
D-----------|--4-|                          |
A-----------|----|                          |
e-----------|----|                         /
                                          /


E5 A5 D5 G5
E5 A5 D5 G5

(Esto va arpegiado)

E                                 A
Le prometiste que no volverías a tomar
D                        G
Y ya vez que mentira tan cruel
E                                 A
Salir temprano para ir disque a trabajar
D                       G
Pero tú te la pasas tomando


(Esta parte va rasgueado)

E            G#m
Le prometiste ya no tomar
       A                 B
Ni las lágrimas de tu mujer
      A        B
Te hicieron pensar
E          G#m
En el dolor que les causas.
       A                 B
Las noches de desesperación
       A                 B
Que le causaste a tu familia.

Bajeo 1

E                                 A
Salir temprano para ir disque a trabajar
D                       G
Pero tú te la pasas tomando

E            G#m
Le prometiste ya no tomar
       A                 B
Ni las lágrimas de tu mujer
      A        B
Te hicieron pensar
E          G#m
En el dolor que les causas.
       A                 B
Las noches de desesperación
       A                 B
Que le causaste a tu familia.

Bajeo 1

E           A
No quisiste ir
D              G
Al doble A, Olivar.

E
No escarmientas
A
Lo que vives en la calle
D
Mil anexos has pisado
G
Y no quieres entender

E            G#m
Le prometiste ya no tomar
       A                 B
Ni las lágrimas de tu mujer
      A        B
Te hicieron pensar
E          G#m
En el dolor que les causas.
       A                 B
Las noches de desesperación
       A                 B
Que le causaste a tu familia.


E        G#m  A  B
Le prometiste
E        G#m  A  B
Le prometiste
E        G#m  A  B
Le prometiste


E------------|------------|--0--|
B------------|------------|--0--|
G------------|------------|--2--|
D------------|------------|--2--|
A------------|------------|--2--|
e--0---2---3-|--0---2---3-|--0--|


cualquier duda o aclaracion escriban a:
israel_lz_021@

More chords by Angel O Demonio: