Androcles - You Guitar Chords

Chords: Am, Em, C, G, D, Dsus
[Intro]
e|--------|--------|--------|--------|
B|--------|--------|--------|--------| 
G|---0---0|---0---0|---0---0|---8---0|
D|--4--4--|-4---4--|--4--4--|-4------|
A|-2------|--------|-2------|--------|
E|0-------|--------|3-------|--------|x2

[Verse]
**Verses follow the above tablature.
N.C.
When we first met, you swept me off my feet.
N.C.
And when I think of you, my heart skips a beat.
N.C.
I think I'm tired of just playing around.
N.C.
I've thought it through, and I need you now.

[Chorus]
Am
You- you astound me.
Em
You- you surround me.
C
You- you just get me.
G             D     Dsus  D
You- never forget me.
Am
You- you surprise me.
Em
You- you hypnotize me.
C
You- you resurect me.
G           D
You- you perfect me.

[Verse]
N.C.
Our conversation's got me up all night.
N.C.
But I don't care if I see morning light.
N.C
Sometimes I think I don't stand a chance.
N.C.
But with you, I'm fine from start to parting glance.

[Chorus]
Am
You- you astound me.
Em
You- you surround me.
C
You- you just get me.
G             D     Dsus  D
You- never forget me.
Am
You- you surprise me.
Em
You- you hypnotize me.
C
You- you resurect me.
G           D
You- you perfect me.

[Bridge]
G
And you, you're always there.
Em
You, you always care.
Am
You, you've got me saying:
C              D       Dsus  D
I'll always be staying.

[Trumpet Solo]
G Em Am C D Dsus D

[Chorus]
Am
You- you astound me.
Em
You- you surround me.
C
You- you just get me.
G             D     Dsus  D
You- never forget me.
Am
You- you surprise me.
Em
You- you hypnotize me.
C
You- you resurect me.
G           D
You- you perfect me.

[Outro]
e|--------|--------|--------|--------|
B|--------|--------|--------|--------| 
G|---0---0|---0---0|---0---0|---8---0|
D|--4--4--|-4---4--|--4--4--|-4------|
A|-2------|--------|-2------|--------|
E|0-------|--------|3-------|--------|x2

More chords by Androcles: