Americania - Silencio Guitar Chords

Americania

venezuelan rock

Chords: F#, A, E, D, Bm
Intro:

E/------------------------------------------/
B/------------------------------------------/
G/------------------------------------------/
D/------------------------------------------/
A/--------------------------------7-4-4-7---/
E/--0-2-2-2-2-0-2-2-2-2-0-5-5-5-5---------0-/

F# - A - E (x2)

F#            A         E
No es porque te vas ahora
F#            A         E
es que nunca estuviste aquí
F#            A         E
el viento derrama las hojas
F#            A         E
que ya no vuelven a subir

D
Pero yo
        A
sigo aquí
D       A  D
es que ya
 A              Bm          E    D
las cosas que no digo me bastan
A             Bm       E
las guardo para mi

F#            A         E
Siempre he perdido chances
F#            A         E
que nunca he podido aprovechar
F#            A         E
los tuve frente a mi
F#            A         E
pero prefiero no tocar el sol
F#      A         E
y verlo desde lejos
F#    A         E
para poder seguir

D
Pero yo
        A
sigo aquí
D       A  D
es que ya
 A              Bm          E    D
las cosas que no digo me bastan
A             Bm       E   D
las guardo para mi
A            Bm                 E
mientras voy viendo como todo pasa

Outro:

E/-----------------------------------/
B/-----------------------------------/
G/-----------------------------------/
D/-----------------------------------/
A/------------------------7-4-4-7----/
E/--0-2-2-2-0-2-2-2-0-5-5----------0-/

F# - A - E

More chords by Americania: